0
SECTION
2
HEADER
999
*** POWERPCB  HEADER ***
9
$EXTMIN
10
-16.581318
20
-6.6351253333
9
$EXTMAX
10
135.127
20
41.7656366667
9
$FILLMODE
70
0
9
$GRIDMODE
70
1
9
$GRIDUNIT
10
1
20
1
9
$INSBASE
10
-457.2
20
-457.2
9
$LIMCHECK
70
0
9
$PLINEWID
40
0.1
9
$SNAPMODE
70
1
9
$SNAPUNIT
10
0.5
20
0.5
9
$TEXTSIZE
40
2.54
9
$TEXTSTYLE
7
W0$254
9
$USERI1
70
101
9
$USERI2
70
0
9
$USERI5
70
150
9
$VIEWCTR
10
93.607992
20
8.96152
0
ENDSEC
0
SECTION
2
TABLES
999
*** POWERPCB  LTYPE ***
0
TABLE
2
LTYPE
70
4
0
LTYPE
2
CONTINUOUS
70
64
3
---
72
65
73
0
40
0
0
LTYPE
2
TRMIDX_2048
70
64
3
---
72
65
73
2
40
2
49
1
49
1
0
LTYPE
2
TRMIDX_4096
70
64
3
---
72
65
73
2
40
2
49
1
49
1
0
LTYPE
2
TRMIDX_0
70
64
3
---
72
65
73
2
40
2
49
1
49
1
0
LTYPE
2
KEEPOUT_00011110$0
70
64
3
---
72
65
73
2
40
2
49
1
49
1
0
ENDTAB
999
*** POWERPCB  LAYER ***
0
TABLE
2
LAYER
70
40
0
LAYER
2
DBLAYERS
70
1
62
-254
6
CONTINUOUS
0
LAYER
2
BOARD_OUTLINE_00
70
0
62
254
6
CONTINUOUS
0
LAYER
2
2D_LINE_00
70
0
62
2
6
CONTINUOUS
0
LAYER
2
DIMENSION7_24
70
0
62
254
6
CONTINUOUS
0
LAYER
2
DIMENSION1_24
70
0
62
254
6
CONTINUOUS
0
LAYER
2
DIMENSION3_24
70
0
62
254
6
CONTINUOUS
0
LAYER
2
DIMENSION2_24
70
0
62
254
6
CONTINUOUS
0
LAYER
2
DIMENSION4_24
70
0
62
254
6
CONTINUOUS
0
LAYER
2
DIMENSION5_24
70
0
62
254
6
CONTINUOUS
0
LAYER
2
DIMENSION6_24
70
0
62
254
6
CONTINUOUS
0
LAYER
2
TEXT_24
70
0
62
4
6
CONTINUOUS
0
LAYER
2
TEXT_26
70
0
62
254
6
CONTINUOUS
0
LAYER
2
LABEL_INFO
70
1
62
-254
6
CONTINUOUS
0
LAYER
2
LABEL_ATTRIBUTE
70
1
62
-254
6
CONTINUOUS
0
LAYER
2
PART_TYPE_01
70
1
62
-250
6
CONTINUOUS
0
LAYER
2
PART_NAME_01
70
0
62
254
6
CONTINUOUS
0
LAYER
2
PART_INFO
70
1
62
-254
6
CONTINUOUS
0
LAYER
2
PART_PTS
70
1
62
-254
6
CONTINUOUS
0
LAYER
2
PART_TYPE_TOP
70
1
62
-250
6
CONTINUOUS
0
LAYER
2
SYM_NAME
70
1
62
-254
6
CONTINUOUS
0
LAYER
2
SYM_PART_NAME_01
70
1
62
-254
6
CONTINUOUS
0
LAYER
2
SYM_PART_TYPE_01
70
1
62
-254
6
CONTINUOUS
0
LAYER
2
SYM_TERMINAL
70
1
62
-254
6
CONTINUOUS
0
LAYER
2
PKG_INFO
70
1
62
-254
6
CONTINUOUS
0
LAYER
2
PART_TOP_2DLINE_01
70
0
62
254
6
CONTINUOUS
0
LAYER
2
PART_TOP_COPPER_26
70
0
62
254
6
CONTINUOUS
0
LAYER
2
DRIL_NPLTE_THRU_01
70
0
62
176
6
CONTINUOUS
0
LAYER
2
DRIL_NPLTE_THRU_02
70
0
62
16
6
CONTINUOUS
0
LAYER
2
PADS_INNER
70
0
62
5
6
CONTINUOUS
0
LAYER
2
PADS_BOT
70
0
62
1
6
CONTINUOUS
0
LAYER
2
PADS_TOP
70
0
62
5
6
CONTINUOUS
0
LAYER
2
DRIL_PLTE_THRU_01
70
0
62
176
6
CONTINUOUS
0
LAYER
2
DRIL_PLTE_THRU_02
70
0
62
16
6
CONTINUOUS
0
LAYER
2
PART_TOP_COPPER_01
70
0
62
254
6
CONTINUOUS
0
LAYER
2
PART_TOP_CUTOUT_03
70
1
62
-250
6
CONTINUOUS
0
LAYER
2
PART_TOP_CUTOUT_04
70
1
62
-250
6
CONTINUOUS
0
LAYER
2
KEEPOUT_00
70
0
62
130
6
CONTINUOUS
0
LAYER
2
PADS_XR_21
70
0
62
176
6
CONTINUOUS
0
LAYER
2
PCB_PARAMS
70
1
62
-254
6
CONTINUOUS
0
LAYER
2
DRIL_SYMBOL
70
0
62
254
6
CONTINUOUS
0
ENDTAB
999
*** POWERPCB  TEXT STYLE ***
0
TABLE
2
STYLE
70
4
0
STYLE
2
W0$254
70
64
40
0
41
0.75
42
0
50
0
71
0
3
simplex
0
STYLE
2
W0$2032
70
64
40
0
41
0.75
42
0
50
0
71
0
3
simplex
0
STYLE
2
W0$127R0
70
64
40
0
41
0.75
42
0
50
0
71
0
3
simplex
0
STYLE
2
W0$2032R0
70
64
40
0
41
0.75
42
0
50
0
71
0
3
simplex
0
ENDTAB
0
ENDSEC
0
SECTION
2
BLOCKS
999
*** POWERPCB  DBLAYER ***
0
BLOCK
2
DBLAYERS
8
0
10
0
20
0
3
DBLAYERS
70
64
0
TEXT
8
DBLAYERS
10
0
20
-3.048
40
1.778
1
__It__Is__Job__Name__:=51P_FFC--.pcb
999
 *  1.Number             2.Type                  3.RouteColor
999
 *  4.ViaColor           5.PadColor              6.CopperColor
999
 *  7.2DLineColor        8.TextColor             9.ErrorColor
999
 * 10.TopComponentColor 11.BottomComponentColor 12.RoutingDirection
999
 * 13.LayerThickness    14.CopperThickness      15.Dielectric
999
 * 16.IsRouteable       17.IsVisible            18.IsSelectable
999
 * 19.IsPrepreg         20.AssSilkScreen        21.AssPasteMask
999
 * 22.AssSolderMask     23.AssAssembly
0
TEXT
8
DBLAYERS
10
0
20
-6.096
40
1.778
1
Top:=1 1 9 9 9 25 14 9 15 8 0 0 381000 51435 4.3000001907 1 1 1 0 26 23 21 27 0 0 1 8 0 9 27 
0
TEXT
8
DBLAYERS
10
0
20
-9.144
40
1.778
1
Solder Mask Top:=21 5 0 1 1 1 1 1 0 0 0 2 0 0 0 0 1 1 0 -1 -1 -1 -1 0 0 0 0 0 1 1 
0
TEXT
8
DBLAYERS
10
0
20
-12.192
40
1.778
1
Drill Drawing:=24 2 0 0 0 11 11 11 0 11 11 2 0 0 0 0 1 1 0 -1 -1 -1 -1 0 0 0 0 0 11 11 
0
TEXT
8
DBLAYERS
10
0
20
-15.24
40
1.778
1
Silkscreen Top:=26 3 0 0 0 8 8 8 0 8 0 2 0 0 0 0 1 1 0 -1 -1 -1 -1 0 0 0 8 0 8 8 
0
ENDBLK
999
*** POWERPCB  BOARD ***
0
BLOCK
2
BOARD_4
8
0
10
0
20
0
3
BOARD_4
70
64
0
POLYLINE
8
BOARD_OUTLINE_00
66
1
40
0.254
41
0.254
70
1
0
VERTEX
8
BOARD_OUTLINE_00
10
-10
20
-5
0
VERTEX
8
BOARD_OUTLINE_00
10
135
20
-5
0
VERTEX
8
BOARD_OUTLINE_00
10
135
20
35
0
VERTEX
8
BOARD_OUTLINE_00
10
-10
20
35
0
SEQEND
0
INSERT
2
SMOOTH_0$254
8
BOARD_OUTLINE_00
10
-10
20
-5
0
INSERT
2
SMOOTH_0$254
8
BOARD_OUTLINE_00
10
135
20
-5
0
INSERT
2
SMOOTH_0$254
8
BOARD_OUTLINE_00
10
135
20
35
0
INSERT
2
SMOOTH_0$254
8
BOARD_OUTLINE_00
10
-10
20
35
0
ENDBLK
999
*** POWERPCB  2DLINE ***
0
BLOCK
2
DRAWING_5
8
0
10
0
20
0
3
DRAWING_5
70
64
0
POLYLINE
8
2D_LINE_00
66
1
40
0.254
41
0.254
70
1
0
VERTEX
8
2D_LINE_00
10
0
20
0
0
VERTEX
8
2D_LINE_00
10
65
20
0
0
VERTEX
8
2D_LINE_00
10
65
20
30
0
VERTEX
8
2D_LINE_00
10
0
20
30
0
SEQEND
0
INSERT
2
SMOOTH_0$254
8
2D_LINE_00
10
0
20
0
0
INSERT
2
SMOOTH_0$254
8
2D_LINE_00
10
65
20
0
0
INSERT
2
SMOOTH_0$254
8
2D_LINE_00
10
65
20
30
0
INSERT
2
SMOOTH_0$254
8
2D_LINE_00
10
0
20
30
0
ENDBLK
0
BLOCK
2
D_1dfeghi_6
8
0
10
0
20
0
3
D_1dfeghi_6
70
64
0
POLYLINE
8
DIMENSION7_24
6
TRMIDX_2048
66
1
40
0.0254
41
0.0254
0
VERTEX
8
DIMENSION7_24
10
0
20
0
0
VERTEX
8
DIMENSION7_24
10
0.0006666667
20
0
0
SEQEND
0
POLYLINE
8
DIMENSION7_24
6
TRMIDX_2048
66
1
40
0.0254
41
0.0254
0
VERTEX
8
DIMENSION7_24
10
-65
20
0
0
VERTEX
8
DIMENSION7_24
10
-64.9993333333
20
0
0
SEQEND
0
POLYLINE
8
DIMENSION1_24
6
TRMIDX_2048
66
1
40
0.254
41
0.254
0
VERTEX
8
DIMENSION1_24
10
0
20
10
0
VERTEX
8
DIMENSION1_24
10
-27.7836813333
20
10
0
SEQEND
0
POLYLINE
8
DIMENSION3_24
6
TRMIDX_2048
66
1
40
0.254
41
0.254
70
1
0
VERTEX
8
DIMENSION3_24
10
0
20
10
0
VERTEX
8
DIMENSION3_24
10
-2.54
20
9.365
0
VERTEX
8
DIMENSION3_24
10
-2.54
20
10.635
0
SEQEND
0
POLYLINE
8
DIMENSION2_24
6
TRMIDX_2048
66
1
40
0.254
41
0.254
0
VERTEX
8
DIMENSION2_24
10
-65
20
10
0
VERTEX
8
DIMENSION2_24
10
-37.216318
20
10
0
SEQEND
0
POLYLINE
8
DIMENSION4_24
6
TRMIDX_2048
66
1
40
0.254
41
0.254
70
1
0
VERTEX
8
DIMENSION4_24
10
-65
20
10
0
VERTEX
8
DIMENSION4_24
10
-62.46
20
10.635
0
VERTEX
8
DIMENSION4_24
10
-62.46
20
9.365
0
SEQEND
0
POLYLINE
8
DIMENSION5_24
6
TRMIDX_2048
66
1
40
0.254
41
0.254
0
VERTEX
8
DIMENSION5_24
10
0
20
1.27
0
VERTEX
8
DIMENSION5_24
10
0
20
11.27
0
SEQEND
0
POLYLINE
8
DIMENSION6_24
6
TRMIDX_2048
66
1
40
0.254
41
0.254
0
VERTEX
8
DIMENSION6_24
10
-65
20
1.27
0
VERTEX
8
DIMENSION6_24
10
-65
20
11.27
0
SEQEND
0
TEXT
8
TEXT_24
10
-36.454318
20
9.0475
40
1.778
1
65.0mm
41
0.75
7
W0$254
0
ENDBLK
0
BLOCK
2
D_2dfeghi_7
8
0
10
0
20
0
3
D_2dfeghi_7
70
64
0
POLYLINE
8
DIMENSION7_24
6
TRMIDX_4096
66
1
40
0.0254
41
0.0254
0
VERTEX
8
DIMENSION7_24
10
0
20
0
0
VERTEX
8
DIMENSION7_24
10
0.0006666667
20
0
0
SEQEND
0
POLYLINE
8
DIMENSION7_24
6
TRMIDX_4096
66
1
40
0.0254
41
0.0254
0
VERTEX
8
DIMENSION7_24
10
0
20
30
0
VERTEX
8
DIMENSION7_24
10
0.0006666667
20
30
0
SEQEND
0
POLYLINE
8
DIMENSION1_24
6
TRMIDX_4096
66
1
40
0.254
41
0.254
0
VERTEX
8
DIMENSION1_24
10
-12.5
20
0
0
VERTEX
8
DIMENSION1_24
10
-12.5
20
13.2855
0
SEQEND
0
POLYLINE
8
DIMENSION3_24
6
TRMIDX_4096
66
1
40
0.254
41
0.254
70
1
0
VERTEX
8
DIMENSION3_24
10
-12.5
20
0
0
VERTEX
8
DIMENSION3_24
10
-13.135
20
2.54
0
VERTEX
8
DIMENSION3_24
10
-11.865
20
2.54
0
SEQEND
0
POLYLINE
8
DIMENSION2_24
6
TRMIDX_4096
66
1
40
0.254
41
0.254
0
VERTEX
8
DIMENSION2_24
10
-12.5
20
30
0
VERTEX
8
DIMENSION2_24
10
-12.5
20
16.7145
0
SEQEND
0
POLYLINE
8
DIMENSION4_24
6
TRMIDX_4096
66
1
40
0.254
41
0.254
70
1
0
VERTEX
8
DIMENSION4_24
10
-12.5
20
30
0
VERTEX
8
DIMENSION4_24
10
-11.865
20
27.46
0
VERTEX
8
DIMENSION4_24
10
-13.135
20
27.46
0
SEQEND
0
POLYLINE
8
DIMENSION5_24
6
TRMIDX_4096
66
1
40
0.254
41
0.254
0
VERTEX
8
DIMENSION5_24
10
-1.27
20
0
0
VERTEX
8
DIMENSION5_24
10
-13.77
20
0
0
SEQEND
0
POLYLINE
8
DIMENSION6_24
6
TRMIDX_4096
66
1
40
0.254
41
0.254
0
VERTEX
8
DIMENSION6_24
10
-1.27
20
30
0
VERTEX
8
DIMENSION6_24
10
-13.77
20
30
0
SEQEND
0
TEXT
8
TEXT_24
10
-16.454318
20
14.0475
40
1.778
1
30.0mm
41
0.75
7
W0$254
0
ENDBLK
0
BLOCK
2
D_2daefgh_8
8
0
10
0
20
0
3
D_2daefgh_8
70
64
0
POLYLINE
8
DIMENSION7_24
6
TRMIDX_4096
66
1
40
0.0254
41
0.0254
0
VERTEX
8
DIMENSION7_24
10
0
20
0
0
VERTEX
8
DIMENSION7_24
10
0.0006666667
20
0
0
SEQEND
0
POLYLINE
8
DIMENSION7_24
6
TRMIDX_4096
66
1
40
0.0254
41
0.0254
0
VERTEX
8
DIMENSION7_24
10
0
20
10
0
VERTEX
8
DIMENSION7_24
10
0.0006666667
20
10
0
SEQEND
0
POLYLINE
8
DIMENSION1_24
6
TRMIDX_4096
66
1
40
0.254
41
0.254
0
VERTEX
8
DIMENSION1_24
10
-2.5
20
0
0
VERTEX
8
DIMENSION1_24
10
-2.5
20
10
0
SEQEND
0
POLYLINE
8
DIMENSION3_24
6
TRMIDX_4096
66
1
40
0.254
41
0.254
70
1
0
VERTEX
8
DIMENSION3_24
10
-2.5
20
0
0
VERTEX
8
DIMENSION3_24
10
-3.135
20
2.54
0
VERTEX
8
DIMENSION3_24
10
-1.865
20
2.54
0
SEQEND
0
POLYLINE
8
DIMENSION4_24
6
TRMIDX_4096
66
1
40
0.254
41
0.254
70
1
0
VERTEX
8
DIMENSION4_24
10
-2.5
20
10
0
VERTEX
8
DIMENSION4_24
10
-1.865
20
7.46
0
VERTEX
8
DIMENSION4_24
10
-3.135
20
7.46
0
SEQEND
0
POLYLINE
8
DIMENSION5_24
6
TRMIDX_4096
66
1
40
0.254
41
0.254
0
VERTEX
8
DIMENSION5_24
10
-1.27
20
0
0
VERTEX
8
DIMENSION5_24
10
-3.77
20
0
0
SEQEND
0
POLYLINE
8
DIMENSION6_24
6
TRMIDX_4096
66
1
40
0.254
41
0.254
0
VERTEX
8
DIMENSION6_24
10
-1.27
20
10
0
VERTEX
8
DIMENSION6_24
10
-3.77
20
10
0
SEQEND
0
TEXT
8
TEXT_24
10
-10
20
5
40
1.778
1
10.0mm
41
0.75
7
W0$254
0
ENDBLK
0
BLOCK
2
D_1dfeghi_9
8
0
10
0
20
0
3
D_1dfeghi_9
70
64
0
POLYLINE
8
DIMENSION7_24
6
TRMIDX_2048
66
1
40
0.0254
41
0.0254
0
VERTEX
8
DIMENSION7_24
10
0
20
0
0
VERTEX
8
DIMENSION7_24
10
0.0006666667
20
0
0
SEQEND
0
POLYLINE
8
DIMENSION7_24
6
TRMIDX_2048
66
1
40
0.0254
41
0.0254
0
VERTEX
8
DIMENSION7_24
10
5
20
0
0
VERTEX
8
DIMENSION7_24
10
5.0006666667
20
0
0
SEQEND
0
POLYLINE
8
DIMENSION1_24
6
TRMIDX_2048
66
1
40
0.254
41
0.254
0
VERTEX
8
DIMENSION1_24
10
0
20
2.5
0
VERTEX
8
DIMENSION1_24
10
-3.81
20
2.5
0
SEQEND
0
POLYLINE
8
DIMENSION3_24
6
TRMIDX_2048
66
1
40
0.254
41
0.254
70
1
0
VERTEX
8
DIMENSION3_24
10
0
20
2.5
0
VERTEX
8
DIMENSION3_24
10
-2.54
20
1.865
0
VERTEX
8
DIMENSION3_24
10
-2.54
20
3.135
0
SEQEND
0
POLYLINE
8
DIMENSION2_24
6
TRMIDX_2048
66
1
40
0.254
41
0.254
0
VERTEX
8
DIMENSION2_24
10
5
20
2.5
0
VERTEX
8
DIMENSION2_24
10
8.81
20
2.5
0
SEQEND
0
POLYLINE
8
DIMENSION4_24
6
TRMIDX_2048
66
1
40
0.254
41
0.254
70
1
0
VERTEX
8
DIMENSION4_24
10
5
20
2.5
0
VERTEX
8
DIMENSION4_24
10
7.54
20
3.135
0
VERTEX
8
DIMENSION4_24
10
7.54
20
1.865
0
SEQEND
0
POLYLINE
8
DIMENSION5_24
6
TRMIDX_2048
66
1
40
0.254
41
0.254
0
VERTEX
8
DIMENSION5_24
10
0
20
1.27
0
VERTEX
8
DIMENSION5_24
10
0
20
3.77
0
SEQEND
0
POLYLINE
8
DIMENSION6_24
6
TRMIDX_2048
66
1
40
0.254
41
0.254
0
VERTEX
8
DIMENSION6_24
10
5
20
1.27
0
VERTEX
8
DIMENSION6_24
10
5
20
3.77
0
SEQEND
0
TEXT
8
TEXT_24
10
-12.5
20
2.5
40
1.778
1
5.0mm
41
0.75
7
W0$254
0
ENDBLK
0
BLOCK
2
D_1dfeghi_10
8
0
10
0
20
0
3
D_1dfeghi_10
70
64
0
POLYLINE
8
DIMENSION7_24
6
TRMIDX_2048
66
1
40
0.0254
41
0.0254
0
VERTEX
8
DIMENSION7_24
10
0
20
0
0
VERTEX
8
DIMENSION7_24
10
0.0006666667
20
0
0
SEQEND
0
POLYLINE
8
DIMENSION7_24
6
TRMIDX_2048
66
1
40
0.0254
41
0.0254
0
VERTEX
8
DIMENSION7_24
10
5
20
0
0
VERTEX
8
DIMENSION7_24
10
5.0006666667
20
0
0
SEQEND
0
POLYLINE
8
DIMENSION1_24
6
TRMIDX_2048
66
1
40
0.254
41
0.254
0
VERTEX
8
DIMENSION1_24
10
0
20
2.5
0
VERTEX
8
DIMENSION1_24
10
-3.81
20
2.5
0
SEQEND
0
POLYLINE
8
DIMENSION3_24
6
TRMIDX_2048
66
1
40
0.254
41
0.254
70
1
0
VERTEX
8
DIMENSION3_24
10
0
20
2.5
0
VERTEX
8
DIMENSION3_24
10
-2.54
20
1.865
0
VERTEX
8
DIMENSION3_24
10
-2.54
20
3.135
0
SEQEND
0
POLYLINE
8
DIMENSION2_24
6
TRMIDX_2048
66
1
40
0.254
41
0.254
0
VERTEX
8
DIMENSION2_24
10
5
20
2.5
0
VERTEX
8
DIMENSION2_24
10
8.81
20
2.5
0
SEQEND
0
POLYLINE
8
DIMENSION4_24
6
TRMIDX_2048
66
1
40
0.254
41
0.254
70
1
0
VERTEX
8
DIMENSION4_24
10
5
20
2.5
0
VERTEX
8
DIMENSION4_24
10
7.54
20
3.135
0
VERTEX
8
DIMENSION4_24
10
7.54
20
1.865
0
SEQEND
0
POLYLINE
8
DIMENSION5_24
6
TRMIDX_2048
66
1
40
0.254
41
0.254
0
VERTEX
8
DIMENSION5_24
10
0
20
1.27
0
VERTEX
8
DIMENSION5_24
10
0
20
3.77
0
SEQEND
0
POLYLINE
8
DIMENSION6_24
6
TRMIDX_2048
66
1
40
0.254
41
0.254
0
VERTEX
8
DIMENSION6_24
10
5
20
1.27
0
VERTEX
8
DIMENSION6_24
10
5
20
3.77
0
SEQEND
0
TEXT
8
TEXT_24
10
9.572
20
1.5475
40
1.778
1
5.0mm
41
0.75
7
W0$254
0
ENDBLK
0
BLOCK
2
D_1dfeghi_11
8
0
10
0
20
0
3
D_1dfeghi_11
70
64
0
POLYLINE
8
DIMENSION7_24
6
TRMIDX_2048
66
1
40
0.0254
41
0.0254
0
VERTEX
8
DIMENSION7_24
10
0
20
0
0
VERTEX
8
DIMENSION7_24
10
0.0006666667
20
0
0
SEQEND
0
POLYLINE
8
DIMENSION7_24
6
TRMIDX_2048
66
1
40
0.0254
41
0.0254
0
VERTEX
8
DIMENSION7_24
10
27.7
20
-0.1
0
VERTEX
8
DIMENSION7_24
10
27.7006666667
20
-0.1
0
SEQEND
0
POLYLINE
8
DIMENSION1_24
6
TRMIDX_2048
66
1
40
0.254
41
0.254
0
VERTEX
8
DIMENSION1_24
10
0
20
2.5
0
VERTEX
8
DIMENSION1_24
10
9.133682
20
2.5
0
SEQEND
0
POLYLINE
8
DIMENSION3_24
6
TRMIDX_2048
66
1
40
0.254
41
0.254
70
1
0
VERTEX
8
DIMENSION3_24
10
0
20
2.5
0
VERTEX
8
DIMENSION3_24
10
2.54
20
3.135
0
VERTEX
8
DIMENSION3_24
10
2.54
20
1.865
0
SEQEND
0
POLYLINE
8
DIMENSION2_24
6
TRMIDX_2048
66
1
40
0.254
41
0.254
0
VERTEX
8
DIMENSION2_24
10
27.7
20
2.5
0
VERTEX
8
DIMENSION2_24
10
18.5663186667
20
2.5
0
SEQEND
0
POLYLINE
8
DIMENSION4_24
6
TRMIDX_2048
66
1
40
0.254
41
0.254
70
1
0
VERTEX
8
DIMENSION4_24
10
27.7
20
2.5
0
VERTEX
8
DIMENSION4_24
10
25.16
20
1.865
0
VERTEX
8
DIMENSION4_24
10
25.16
20
3.135
0
SEQEND
0
POLYLINE
8
DIMENSION5_24
6
TRMIDX_2048
66
1
40
0.254
41
0.254
0
VERTEX
8
DIMENSION5_24
10
0
20
1.27
0
VERTEX
8
DIMENSION5_24
10
0
20
3.77
0
SEQEND
0
POLYLINE
8
DIMENSION6_24
6
TRMIDX_2048
66
1
40
0.254
41
0.254
0
VERTEX
8
DIMENSION6_24
10
27.7
20
1.17
0
VERTEX
8
DIMENSION6_24
10
27.7
20
3.77
0
SEQEND
0
TEXT
8
TEXT_24
10
9.895682
20
1.5475
40
1.778
1
27.7mm
41
0.75
7
W0$254
0
ENDBLK
0
BLOCK
2
D_2dfeghi_12
8
0
10
0
20
0
3
D_2dfeghi_12
70
64
0
POLYLINE
8
DIMENSION7_24
6
TRMIDX_4096
66
1
40
0.0254
41
0.0254
0
VERTEX
8
DIMENSION7_24
10
0
20
5
0
VERTEX
8
DIMENSION7_24
10
0.0006666667
20
5
0
SEQEND
0
POLYLINE
8
DIMENSION7_24
6
TRMIDX_4096
66
1
40
0.0254
41
0.0254
0
VERTEX
8
DIMENSION7_24
10
0
20
10
0
VERTEX
8
DIMENSION7_24
10
0.0006666667
20
10
0
SEQEND
0
POLYLINE
8
DIMENSION1_24
6
TRMIDX_4096
66
1
40
0.254
41
0.254
0
VERTEX
8
DIMENSION1_24
10
-2.5
20
5
0
VERTEX
8
DIMENSION1_24
10
-2.5
20
1.19
0
SEQEND
0
POLYLINE
8
DIMENSION3_24
6
TRMIDX_4096
66
1
40
0.254
41
0.254
70
1
0
VERTEX
8
DIMENSION3_24
10
-2.5
20
5
0
VERTEX
8
DIMENSION3_24
10
-1.865
20
2.46
0
VERTEX
8
DIMENSION3_24
10
-3.135
20
2.46
0
SEQEND
0
POLYLINE
8
DIMENSION2_24
6
TRMIDX_4096
66
1
40
0.254
41
0.254
0
VERTEX
8
DIMENSION2_24
10
-2.5
20
10
0
VERTEX
8
DIMENSION2_24
10
-2.5
20
13.81
0
SEQEND
0
POLYLINE
8
DIMENSION4_24
6
TRMIDX_4096
66
1
40
0.254
41
0.254
70
1
0
VERTEX
8
DIMENSION4_24
10
-2.5
20
10
0
VERTEX
8
DIMENSION4_24
10
-3.135
20
12.54
0
VERTEX
8
DIMENSION4_24
10
-1.865
20
12.54
0
SEQEND
0
POLYLINE
8
DIMENSION5_24
6
TRMIDX_4096
66
1
40
0.254
41
0.254
0
VERTEX
8
DIMENSION5_24
10
-1.27
20
5
0
VERTEX
8
DIMENSION5_24
10
-3.77
20
5
0
SEQEND
0
POLYLINE
8
DIMENSION6_24
6
TRMIDX_4096
66
1
40
0.254
41
0.254
0
VERTEX
8
DIMENSION6_24
10
-1.27
20
10
0
VERTEX
8
DIMENSION6_24
10
-3.77
20
10
0
SEQEND
0
TEXT
8
TEXT_24
10
-2.5
20
15
40
1.778
1
5.0mm
50
90
41
0.75
7
W0$254
0
ENDBLK
0
BLOCK
2
D_1dfeghi_13
8
0
10
0
20
0
3
D_1dfeghi_13
70
64
0
POLYLINE
8
DIMENSION7_24
6
TRMIDX_2048
66
1
40
0.0254
41
0.0254
0
VERTEX
8
DIMENSION7_24
10
0
20
0
0
VERTEX
8
DIMENSION7_24
10
0.0006666667
20
0
0
SEQEND
0
POLYLINE
8
DIMENSION7_24
6
TRMIDX_2048
66
1
40
0.0254
41
0.0254
0
VERTEX
8
DIMENSION7_24
10
32.7
20
0.2
0
VERTEX
8
DIMENSION7_24
10
32.7006666667
20
0.2
0
SEQEND
0
POLYLINE
8
DIMENSION1_24
6
TRMIDX_2048
66
1
40
0.254
41
0.254
0
VERTEX
8
DIMENSION1_24
10
0
20
-5
0
VERTEX
8
DIMENSION1_24
10
11.633682
20
-5
0
SEQEND
0
POLYLINE
8
DIMENSION3_24
6
TRMIDX_2048
66
1
40
0.254
41
0.254
70
1
0
VERTEX
8
DIMENSION3_24
10
0
20
-5
0
VERTEX
8
DIMENSION3_24
10
2.54
20
-4.365
0
VERTEX
8
DIMENSION3_24
10
2.54
20
-5.635
0
SEQEND
0
POLYLINE
8
DIMENSION2_24
6
TRMIDX_2048
66
1
40
0.254
41
0.254
0
VERTEX
8
DIMENSION2_24
10
32.7
20
-5
0
VERTEX
8
DIMENSION2_24
10
21.0663186667
20
-5
0
SEQEND
0
POLYLINE
8
DIMENSION4_24
6
TRMIDX_2048
66
1
40
0.254
41
0.254
70
1
0
VERTEX
8
DIMENSION4_24
10
32.7
20
-5
0
VERTEX
8
DIMENSION4_24
10
30.16
20
-5.635
0
VERTEX
8
DIMENSION4_24
10
30.16
20
-4.365
0
SEQEND
0
POLYLINE
8
DIMENSION5_24
6
TRMIDX_2048
66
1
40
0.254
41
0.254
0
VERTEX
8
DIMENSION5_24
10
0
20
-1.27
0
VERTEX
8
DIMENSION5_24
10
0
20
-6.27
0
SEQEND
0
POLYLINE
8
DIMENSION6_24
6
TRMIDX_2048
66
1
40
0.254
41
0.254
0
VERTEX
8
DIMENSION6_24
10
32.7
20
-1.07
0
VERTEX
8
DIMENSION6_24
10
32.7
20
-6.27
0
SEQEND
0
TEXT
8
TEXT_24
10
12.395682
20
-5.9525
40
1.778
1
32.7mm
41
0.75
7
W0$254
0
ENDBLK
0
BLOCK
2
D_1dfeghi_14
8
0
10
0
20
0
3
D_1dfeghi_14
70
64
0
POLYLINE
8
DIMENSION7_24
6
TRMIDX_2048
66
1
40
0.0254
41
0.0254
0
VERTEX
8
DIMENSION7_24
10
0
20
0
0
VERTEX
8
DIMENSION7_24
10
0.0006666667
20
0
0
SEQEND
0
POLYLINE
8
DIMENSION7_24
6
TRMIDX_2048
66
1
40
0.0254
41
0.0254
0
VERTEX
8
DIMENSION7_24
10
5
20
0
0
VERTEX
8
DIMENSION7_24
10
5.0006666667
20
0
0
SEQEND
0
POLYLINE
8
DIMENSION1_24
6
TRMIDX_2048
66
1
40
0.254
41
0.254
0
VERTEX
8
DIMENSION1_24
10
0
20
-2.4
0
VERTEX
8
DIMENSION1_24
10
-3.81
20
-2.4
0
SEQEND
0
POLYLINE
8
DIMENSION3_24
6
TRMIDX_2048
66
1
40
0.254
41
0.254
70
1
0
VERTEX
8
DIMENSION3_24
10
0
20
-2.4
0
VERTEX
8
DIMENSION3_24
10
-2.54
20
-3.035
0
VERTEX
8
DIMENSION3_24
10
-2.54
20
-1.765
0
SEQEND
0
POLYLINE
8
DIMENSION2_24
6
TRMIDX_2048
66
1
40
0.254
41
0.254
0
VERTEX
8
DIMENSION2_24
10
5
20
-2.4
0
VERTEX
8
DIMENSION2_24
10
8.81
20
-2.4
0
SEQEND
0
POLYLINE
8
DIMENSION4_24
6
TRMIDX_2048
66
1
40
0.254
41
0.254
70
1
0
VERTEX
8
DIMENSION4_24
10
5
20
-2.4
0
VERTEX
8
DIMENSION4_24
10
7.54
20
-1.765
0
VERTEX
8
DIMENSION4_24
10
7.54
20
-3.035
0
SEQEND
0
POLYLINE
8
DIMENSION5_24
6
TRMIDX_2048
66
1
40
0.254
41
0.254
0
VERTEX
8
DIMENSION5_24
10
0
20
-1.27
0
VERTEX
8
DIMENSION5_24
10
0
20
-3.67
0
SEQEND
0
POLYLINE
8
DIMENSION6_24
6
TRMIDX_2048
66
1
40
0.254
41
0.254
0
VERTEX
8
DIMENSION6_24
10
5
20
-1.27
0
VERTEX
8
DIMENSION6_24
10
5
20
-3.67
0
SEQEND
0
TEXT
8
TEXT_24
10
9.572
20
-3.3525
40
1.778
1
5.0mm
41
0.75
7
W0$254
0
ENDBLK
0
BLOCK
2
D_1dfeghi_15
8
0
10
0
20
0
3
D_1dfeghi_15
70
64
0
POLYLINE
8
DIMENSION7_24
6
TRMIDX_2048
66
1
40
0.0254
41
0.0254
0
VERTEX
8
DIMENSION7_24
10
0
20
0
0
VERTEX
8
DIMENSION7_24
10
0.0006666667
20
0
0
SEQEND
0
POLYLINE
8
DIMENSION7_24
6
TRMIDX_2048
66
1
40
0.0254
41
0.0254
0
VERTEX
8
DIMENSION7_24
10
5
20
0
0
VERTEX
8
DIMENSION7_24
10
5.0006666667
20
0
0
SEQEND
0
POLYLINE
8
DIMENSION1_24
6
TRMIDX_2048
66
1
40
0.254
41
0.254
0
VERTEX
8
DIMENSION1_24
10
0
20
-2.4
0
VERTEX
8
DIMENSION1_24
10
-3.81
20
-2.4
0
SEQEND
0
POLYLINE
8
DIMENSION3_24
6
TRMIDX_2048
66
1
40
0.254
41
0.254
70
1
0
VERTEX
8
DIMENSION3_24
10
0
20
-2.4
0
VERTEX
8
DIMENSION3_24
10
-2.54
20
-3.035
0
VERTEX
8
DIMENSION3_24
10
-2.54
20
-1.765
0
SEQEND
0
POLYLINE
8
DIMENSION2_24
6
TRMIDX_2048
66
1
40
0.254
41
0.254
0
VERTEX
8
DIMENSION2_24
10
5
20
-2.4
0
VERTEX
8
DIMENSION2_24
10
8.81
20
-2.4
0
SEQEND
0
POLYLINE
8
DIMENSION4_24
6
TRMIDX_2048
66
1
40
0.254
41
0.254
70
1
0
VERTEX
8
DIMENSION4_24
10
5
20
-2.4
0
VERTEX
8
DIMENSION4_24
10
7.54
20
-1.765
0
VERTEX
8
DIMENSION4_24
10
7.54
20
-3.035
0
SEQEND
0
POLYLINE
8
DIMENSION5_24
6
TRMIDX_2048
66
1
40
0.254
41
0.254
0
VERTEX
8
DIMENSION5_24
10
0
20
-1.27
0
VERTEX
8
DIMENSION5_24
10
0
20
-3.67
0
SEQEND
0
POLYLINE
8
DIMENSION6_24
6
TRMIDX_2048
66
1
40
0.254
41
0.254
0
VERTEX
8
DIMENSION6_24
10
5
20
-1.27
0
VERTEX
8
DIMENSION6_24
10
5
20
-3.67
0
SEQEND
0
TEXT
8
TEXT_24
10
9.572
20
-3.3525
40
1.778
1
5.0mm
41
0.75
7
W0$254
0
ENDBLK
0
BLOCK
2
D_2daefgh_16
8
0
10
0
20
0
3
D_2daefgh_16
70
64
0
POLYLINE
8
DIMENSION7_24
6
TRMIDX_4096
66
1
40
0.0254
41
0.0254
0
VERTEX
8
DIMENSION7_24
10
0
20
0
0
VERTEX
8
DIMENSION7_24
10
0.0006666667
20
0
0
SEQEND
0
POLYLINE
8
DIMENSION7_24
6
TRMIDX_4096
66
1
40
0.0254
41
0.0254
0
VERTEX
8
DIMENSION7_24
10
0
20
10
0
VERTEX
8
DIMENSION7_24
10
0.0006666667
20
10
0
SEQEND
0
POLYLINE
8
DIMENSION1_24
6
TRMIDX_4096
66
1
40
0.254
41
0.254
0
VERTEX
8
DIMENSION1_24
10
6
20
0
0
VERTEX
8
DIMENSION1_24
10
6
20
10
0
SEQEND
0
POLYLINE
8
DIMENSION3_24
6
TRMIDX_4096
66
1
40
0.254
41
0.254
70
1
0
VERTEX
8
DIMENSION3_24
10
6
20
0
0
VERTEX
8
DIMENSION3_24
10
5.365
20
2.54
0
VERTEX
8
DIMENSION3_24
10
6.635
20
2.54
0
SEQEND
0
POLYLINE
8
DIMENSION4_24
6
TRMIDX_4096
66
1
40
0.254
41
0.254
70
1
0
VERTEX
8
DIMENSION4_24
10
6
20
10
0
VERTEX
8
DIMENSION4_24
10
6.635
20
7.46
0
VERTEX
8
DIMENSION4_24
10
5.365
20
7.46
0
SEQEND
0
POLYLINE
8
DIMENSION5_24
6
TRMIDX_4096
66
1
40
0.254
41
0.254
0
VERTEX
8
DIMENSION5_24
10
1.27
20
0
0
VERTEX
8
DIMENSION5_24
10
7.27
20
0
0
SEQEND
0
POLYLINE
8
DIMENSION6_24
6
TRMIDX_4096
66
1
40
0.254
41
0.254
0
VERTEX
8
DIMENSION6_24
10
1.27
20
10
0
VERTEX
8
DIMENSION6_24
10
7.27
20
10
0
SEQEND
0
TEXT
8
TEXT_24
10
10
20
1.5
40
1.778
1
10.0mm
50
90
41
0.75
7
W0$254
0
ENDBLK
0
BLOCK
2
D_2daefgh_17
8
0
10
0
20
0
3
D_2daefgh_17
70
64
0
POLYLINE
8
DIMENSION7_24
6
TRMIDX_4096
66
1
40
0.0254
41
0.0254
0
VERTEX
8
DIMENSION7_24
10
0
20
0
0
VERTEX
8
DIMENSION7_24
10
0.0006666667
20
0
0
SEQEND
0
POLYLINE
8
DIMENSION7_24
6
TRMIDX_4096
66
1
40
0.0254
41
0.0254
0
VERTEX
8
DIMENSION7_24
10
0
20
10
0
VERTEX
8
DIMENSION7_24
10
0.0006666667
20
10
0
SEQEND
0
POLYLINE
8
DIMENSION1_24
6
TRMIDX_4096
66
1
40
0.254
41
0.254
0
VERTEX
8
DIMENSION1_24
10
6
20
0
0
VERTEX
8
DIMENSION1_24
10
6
20
10
0
SEQEND
0
POLYLINE
8
DIMENSION3_24
6
TRMIDX_4096
66
1
40
0.254
41
0.254
70
1
0
VERTEX
8
DIMENSION3_24
10
6
20
0
0
VERTEX
8
DIMENSION3_24
10
5.365
20
2.54
0
VERTEX
8
DIMENSION3_24
10
6.635
20
2.54
0
SEQEND
0
POLYLINE
8
DIMENSION4_24
6
TRMIDX_4096
66
1
40
0.254
41
0.254
70
1
0
VERTEX
8
DIMENSION4_24
10
6
20
10
0
VERTEX
8
DIMENSION4_24
10
6.635
20
7.46
0
VERTEX
8
DIMENSION4_24
10
5.365
20
7.46
0
SEQEND
0
POLYLINE
8
DIMENSION5_24
6
TRMIDX_4096
66
1
40
0.254
41
0.254
0
VERTEX
8
DIMENSION5_24
10
1.27
20
0
0
VERTEX
8
DIMENSION5_24
10
7.27
20
0
0
SEQEND
0
POLYLINE
8
DIMENSION6_24
6
TRMIDX_4096
66
1
40
0.254
41
0.254
0
VERTEX
8
DIMENSION6_24
10
1.27
20
10
0
VERTEX
8
DIMENSION6_24
10
7.27
20
10
0
SEQEND
0
TEXT
8
TEXT_24
10
10
20
1.5
40
1.778
1
10.0mm
50
90
41
0.75
7
W0$254
0
ENDBLK
999
*** POWERPCB  COMPONENT ***
0
BLOCK
2
PART_TOP_0
8
0
10
0
20
0
3
PART_TOP_0
70
64
0
INSERT
2
SYM_TOP_2
8
0
10
0
20
0
0
INSERT
2
PKG_0
8
0
10
0
20
0
0
TEXT
8
LABEL_INFO
10
-1.2
20
2.8
40
1.778
1
0 0 0 2 0 1
73
2
11
-1.2
21
2.8
41
0.75
7
W0$254
0
TEXT
8
LABEL_ATTRIBUTE
10
-1.2
20
2.8
40
1.778
1
PartType
73
2
11
-1.2
21
2.8
41
0.75
7
W0$254
0
TEXT
8
PART_TYPE_01
10
-1.2
20
2.8
40
1.778
1
CON-FI-RE51S-HF
73
3
11
-1.2
21
2.8
41
0.75
7
W0$254
0
TEXT
8
LABEL_INFO
10
17.303
20
3.336
40
1.778
1
0 0 0 0 0 1
41
0.75
7
W0$254
0
TEXT
8
LABEL_ATTRIBUTE
10
17.303
20
3.336
40
1.778
1
Ref.Des.
41
0.75
7
W0$254
0
TEXT
8
PART_NAME_01
10
17.303
20
3.336
40
1.778
1
CON1
41
0.75
7
W0$254
0
TEXT
8
PART_INFO
10
17.303
20
0.796
40
1.778
1
000000
41
0.75
7
W0$254
0
TEXT
8
PART_PTS
10
17.303
20
-1.744
40
1.778
1
1 2 3 4 5 6 7 8 9 10 11 12 13 14 15 16 17 18 19 20 21 22 23 24 25 26 27 28 29 30 31 32 33 34 35 36 37 38 39 40 41 42 43 44 45 46 47 48 49 50 51 52 53 54 55 56 57 58 59 60 61 
41
0.75
7
W0$254
0
ENDBLK
0
BLOCK
2
PART_TOP_1
8
0
10
0
20
0
3
PART_TOP_1
70
64
0
INSERT
2
SYM_TOP_3
8
0
10
0
20
0
0
INSERT
2
PKG_1
8
0
10
0
20
0
0
TEXT
8
LABEL_INFO
10
-1.91
20
8.15
40
1.778
1
0 324000000 0 0 0 1
50
180
41
0.75
7
W0$254
0
TEXT
8
LABEL_ATTRIBUTE
10
-1.91
20
8.15
40
1.778
1
Ref.Des.
50
180
41
0.75
7
W0$254
0
TEXT
8
PART_NAME_01
10
-1.91
20
8.15
40
1.778
1
CON2
50
180
41
0.75
7
W0$254
0
TEXT
8
PART_TYPE_TOP
10
-1.91
20
5.61
40
1.778
1
H51G5
50
180
41
0.75
7
W0$254
0
TEXT
8
PART_INFO
10
-1.91
20
3.07
40
1.778
1
000000
50
180
41
0.75
7
W0$254
0
TEXT
8
PART_PTS
10
-1.91
20
0.53
40
1.778
1
1 2 3 4 5 6 7 8 9 10 11 12 13 14 15 16 17 18 19 20 21 22 23 24 25 26 27 28 29 30 31 32 33 34 35 36 37 38 39 40 41 42 43 44 45 46 47 48 49 50 51 52 53 
50
180
41
0.75
7
W0$254
0
ENDBLK
0
BLOCK
2
PART_TOP_2
8
0
10
0
20
0
3
PART_TOP_2
70
64
0
INSERT
2
SYM_TOP_4
8
0
10
0
20
0
0
INSERT
2
PKG_2
8
0
10
0
20
0
0
TEXT
8
LABEL_INFO
10
-1.397
20
-0.3302
40
1.778
1
0 0 0 0 0 0
41
0.75
7
W0$254
0
TEXT
8
LABEL_ATTRIBUTE
10
-1.397
20
-0.3302
40
1.778
1
Ref.Des.
41
0.75
7
W0$254
0
TEXT
8
PART_NAME_01
10
-1.397
20
-0.3302
40
1.778
1
CON5
41
0.75
7
W0$254
0
TEXT
8
PART_TYPE_TOP
10
-1.397
20
-2.8702
40
1.778
1
H8D3.3
41
0.75
7
W0$254
0
TEXT
8
PART_INFO
10
-1.397
20
-5.4102
40
1.778
1
000000
41
0.75
7
W0$254
0
TEXT
8
PART_PTS
10
-1.397
20
-7.9502
40
1.778
1
1 2 3 4 5 6 7 8 9 
41
0.75
7
W0$254
0
ENDBLK
0
BLOCK
2
PART_TOP_3
8
0
10
0
20
0
3
PART_TOP_3
70
64
0
INSERT
2
SYM_TOP_4
8
0
10
0
20
0
0
INSERT
2
PKG_2
8
0
10
0
20
0
0
TEXT
8
LABEL_INFO
10
-1.397
20
-0.3302
40
1.778
1
0 0 0 0 0 0
41
0.75
7
W0$254
0
TEXT
8
LABEL_ATTRIBUTE
10
-1.397
20
-0.3302
40
1.778
1
Ref.Des.
41
0.75
7
W0$254
0
TEXT
8
PART_NAME_01
10
-1.397
20
-0.3302
40
1.778
1
CON6
41
0.75
7
W0$254
0
TEXT
8
PART_TYPE_TOP
10
-1.397
20
-2.8702
40
1.778
1
H8D3.3
41
0.75
7
W0$254
0
TEXT
8
PART_INFO
10
-1.397
20
-5.4102
40
1.778
1
000000
41
0.75
7
W0$254
0
TEXT
8
PART_PTS
10
-1.397
20
-7.9502
40
1.778
1
1 2 3 4 5 6 7 8 9 
41
0.75
7
W0$254
0
ENDBLK
0
BLOCK
2
PART_TOP_4
8
0
10
0
20
0
3
PART_TOP_4
70
64
0
INSERT
2
SYM_TOP_4
8
0
10
0
20
0
0
INSERT
2
PKG_2
8
0
10
0
20
0
0
TEXT
8
LABEL_INFO
10
-1.397
20
-0.3302
40
1.0668
1
0 0 0 0 0 0
41
0.75
7
W0$2032
0
TEXT
8
LABEL_ATTRIBUTE
10
-1.397
20
-0.3302
40
1.0668
1
Ref.Des.
41
0.75
7
W0$2032
0
TEXT
8
PART_NAME_01
10
-1.397
20
-0.3302
40
1.0668
1
CON7
41
0.75
7
W0$2032
0
TEXT
8
PART_TYPE_TOP
10
-1.397
20
-1.8542
40
1.0668
1
H8D3.3
41
0.75
7
W0$2032
0
TEXT
8
PART_INFO
10
-1.397
20
-3.3782
40
1.0668
1
000000
41
0.75
7
W0$2032
0
TEXT
8
PART_PTS
10
-1.397
20
-4.9022
40
1.0668
1
1 2 3 4 5 6 7 8 9 
41
0.75
7
W0$2032
0
ENDBLK
0
BLOCK
2
PART_TOP_5
8
0
10
0
20
0
3
PART_TOP_5
70
64
0
INSERT
2
SYM_TOP_4
8
0
10
0
20
0
0
INSERT
2
PKG_2
8
0
10
0
20
0
0
TEXT
8
LABEL_INFO
10
-1.397
20
-0.3302
40
1.778
1
0 0 0 0 0 0
41
0.75
7
W0$254
0
TEXT
8
LABEL_ATTRIBUTE
10
-1.397
20
-0.3302
40
1.778
1
Ref.Des.
41
0.75
7
W0$254
0
TEXT
8
PART_NAME_01
10
-1.397
20
-0.3302
40
1.778
1
CON11
41
0.75
7
W0$254
0
TEXT
8
PART_TYPE_TOP
10
-1.397
20
-2.8702
40
1.778
1
H8D3.3
41
0.75
7
W0$254
0
TEXT
8
PART_INFO
10
-1.397
20
-5.4102
40
1.778
1
000000
41
0.75
7
W0$254
0
TEXT
8
PART_PTS
10
-1.397
20
-7.9502
40
1.778
1
1 2 3 4 5 6 7 8 9 
41
0.75
7
W0$254
0
ENDBLK
0
BLOCK
2
SYM_TOP_2
8
0
10
0
20
0
3
SYM_TOP_2
70
64
0
TEXT
8
SYM_NAME
10
0
20
0
40
1.778
1
CON-FI-RE51S-HF
41
0.75
0
TEXT
8
SYM_PART_NAME_01
10
-1.2
20
2.8
40
0.889
1
 
41
0.75
7
W0$127R0
0
TEXT
8
SYM_PART_TYPE_01
10
-1.2
20
2.8
40
0.889
1
 
73
2
11
-1.2
21
2.8
41
0.75
7
W0$127R0
0
INSERT
2
PART_BODY_TOP_1
8
0
10
0
20
0
0
INSERT
2
STK_TOP_3
8
0
10
-12.5
20
0
0
TEXT
8
SYM_TERMINAL
10
0
20
-3.048
40
1.778
1
1
0
INSERT
2
STK_TOP_3
8
0
10
-12
20
0
0
TEXT
8
SYM_TERMINAL
10
0
20
-6.096
40
1.778
1
2
0
INSERT
2
STK_TOP_3
8
0
10
-11.5
20
0
0
TEXT
8
SYM_TERMINAL
10
0
20
-9.144
40
1.778
1
3
0
INSERT
2
STK_TOP_3
8
0
10
-11
20
0
0
TEXT
8
SYM_TERMINAL
10
0
20
-12.192
40
1.778
1
4
0
INSERT
2
STK_TOP_3
8
0
10
-10.5
20
0
0
TEXT
8
SYM_TERMINAL
10
0
20
-15.24
40
1.778
1
5
0
INSERT
2
STK_TOP_3
8
0
10
-10
20
0
0
TEXT
8
SYM_TERMINAL
10
0
20
-18.288
40
1.778
1
6
0
INSERT
2
STK_TOP_3
8
0
10
-9.5
20
0
0
TEXT
8
SYM_TERMINAL
10
0
20
-21.336
40
1.778
1
7
0
INSERT
2
STK_TOP_3
8
0
10
-9
20
0
0
TEXT
8
SYM_TERMINAL
10
0
20
-24.384
40
1.778
1
8
0
INSERT
2
STK_TOP_3
8
0
10
-8.5
20
0
0
TEXT
8
SYM_TERMINAL
10
0
20
-27.432
40
1.778
1
9
0
INSERT
2
STK_TOP_3
8
0
10
-8
20
0
0
TEXT
8
SYM_TERMINAL
10
0
20
-30.48
40
1.778
1
10
0
INSERT
2
STK_TOP_3
8
0
10
-7.5
20
0
0
TEXT
8
SYM_TERMINAL
10
0
20
-33.528
40
1.778
1
11
0
INSERT
2
STK_TOP_3
8
0
10
-7
20
0
0
TEXT
8
SYM_TERMINAL
10
0
20
-36.576
40
1.778
1
12
0
INSERT
2
STK_TOP_3
8
0
10
-6.5
20
0
0
TEXT
8
SYM_TERMINAL
10
0
20
-39.624
40
1.778
1
13
0
INSERT
2
STK_TOP_3
8
0
10
-6
20
0
0
TEXT
8
SYM_TERMINAL
10
0
20
-42.672
40
1.778
1
14
0
INSERT
2
STK_TOP_3
8
0
10
-5.5
20
0
0
TEXT
8
SYM_TERMINAL
10
0
20
-45.72
40
1.778
1
15
0
INSERT
2
STK_TOP_3
8
0
10
-5
20
0
0
TEXT
8
SYM_TERMINAL
10
0
20
-48.768
40
1.778
1
16
0
INSERT
2
STK_TOP_3
8
0
10
-4.5
20
0
0
TEXT
8
SYM_TERMINAL
10
0
20
-51.816
40
1.778
1
17
0
INSERT
2
STK_TOP_3
8
0
10
-4
20
0
0
TEXT
8
SYM_TERMINAL
10
0
20
-54.864
40
1.778
1
18
0
INSERT
2
STK_TOP_3
8
0
10
-3.5
20
0
0
TEXT
8
SYM_TERMINAL
10
0
20
-57.912
40
1.778
1
19
0
INSERT
2
STK_TOP_3
8
0
10
-3
20
0
0
TEXT
8
SYM_TERMINAL
10
0
20
-60.96
40
1.778
1
20
0
INSERT
2
STK_TOP_3
8
0
10
-2.5
20
0
0
TEXT
8
SYM_TERMINAL
10
0
20
-64.008
40
1.778
1
21
0
INSERT
2
STK_TOP_3
8
0
10
-2
20
0
0
TEXT
8
SYM_TERMINAL
10
0
20
-67.056
40
1.778
1
22
0
INSERT
2
STK_TOP_3
8
0
10
-1.5
20
0
0
TEXT
8
SYM_TERMINAL
10
0
20
-70.104
40
1.778
1
23
0
INSERT
2
STK_TOP_3
8
0
10
-1
20
0
0
TEXT
8
SYM_TERMINAL
10
0
20
-73.152
40
1.778
1
24
0
INSERT
2
STK_TOP_3
8
0
10
-0.5
20
0
0
TEXT
8
SYM_TERMINAL
10
0
20
-76.2
40
1.778
1
25
0
INSERT
2
STK_TOP_3
8
0
10
0
20
0
0
TEXT
8
SYM_TERMINAL
10
0
20
-79.248
40
1.778
1
26
0
INSERT
2
STK_TOP_3
8
0
10
0.5
20
0
0
TEXT
8
SYM_TERMINAL
10
0
20
-82.296
40
1.778
1
27
0
INSERT
2
STK_TOP_3
8
0
10
1
20
0
0
TEXT
8
SYM_TERMINAL
10
0
20
-85.344
40
1.778
1
28
0
INSERT
2
STK_TOP_3
8
0
10
1.5
20
0
0
TEXT
8
SYM_TERMINAL
10
0
20
-88.392
40
1.778
1
29
0
INSERT
2
STK_TOP_3
8
0
10
2
20
0
0
TEXT
8
SYM_TERMINAL
10
0
20
-91.44
40
1.778
1
30
0
INSERT
2
STK_TOP_3
8
0
10
2.5
20
0
0
TEXT
8
SYM_TERMINAL
10
0
20
-94.488
40
1.778
1
31
0
INSERT
2
STK_TOP_3
8
0
10
3
20
0
0
TEXT
8
SYM_TERMINAL
10
0
20
-97.536
40
1.778
1
32
0
INSERT
2
STK_TOP_3
8
0
10
3.5
20
0
0
TEXT
8
SYM_TERMINAL
10
0
20
-100.584
40
1.778
1
33
0
INSERT
2
STK_TOP_3
8
0
10
4
20
0
0
TEXT
8
SYM_TERMINAL
10
0
20
-103.632
40
1.778
1
34
0
INSERT
2
STK_TOP_3
8
0
10
4.5
20
0
0
TEXT
8
SYM_TERMINAL
10
0
20
-106.68
40
1.778
1
35
0
INSERT
2
STK_TOP_3
8
0
10
5
20
0
0
TEXT
8
SYM_TERMINAL
10
0
20
-109.728
40
1.778
1
36
0
INSERT
2
STK_TOP_3
8
0
10
5.5
20
0
0
TEXT
8
SYM_TERMINAL
10
0
20
-112.776
40
1.778
1
37
0
INSERT
2
STK_TOP_3
8
0
10
6
20
0
0
TEXT
8
SYM_TERMINAL
10
0
20
-115.824
40
1.778
1
38
0
INSERT
2
STK_TOP_3
8
0
10
6.5
20
0
0
TEXT
8
SYM_TERMINAL
10
0
20
-118.872
40
1.778
1
39
0
INSERT
2
STK_TOP_3
8
0
10
7
20
0
0
TEXT
8
SYM_TERMINAL
10
0
20
-121.92
40
1.778
1
40
0
INSERT
2
STK_TOP_3
8
0
10
7.5
20
0
0
TEXT
8
SYM_TERMINAL
10
0
20
-124.968
40
1.778
1
41
0
INSERT
2
STK_TOP_3
8
0
10
8
20
0
0
TEXT
8
SYM_TERMINAL
10
0
20
-128.016
40
1.778
1
42
0
INSERT
2
STK_TOP_3
8
0
10
8.5
20
0
0
TEXT
8
SYM_TERMINAL
10
0
20
-131.064
40
1.778
1
43
0
INSERT
2
STK_TOP_3
8
0
10
9
20
0
0
TEXT
8
SYM_TERMINAL
10
0
20
-134.112
40
1.778
1
44
0
INSERT
2
STK_TOP_3
8
0
10
9.5
20
0
0
TEXT
8
SYM_TERMINAL
10
0
20
-137.16
40
1.778
1
45
0
INSERT
2
STK_TOP_3
8
0
10
10
20
0
0
TEXT
8
SYM_TERMINAL
10
0
20
-140.208
40
1.778
1
46
0
INSERT
2
STK_TOP_3
8
0
10
10.5
20
0
0
TEXT
8
SYM_TERMINAL
10
0
20
-143.256
40
1.778
1
47
0
INSERT
2
STK_TOP_3
8
0
10
11
20
0
0
TEXT
8
SYM_TERMINAL
10
0
20
-146.304
40
1.778
1
48
0
INSERT
2
STK_TOP_3
8
0
10
11.5
20
0
0
TEXT
8
SYM_TERMINAL
10
0
20
-149.352
40
1.778
1
49
0
INSERT
2
STK_TOP_3
8
0
10
12
20
0
0
TEXT
8
SYM_TERMINAL
10
0
20
-152.4
40
1.778
1
50
0
INSERT
2
STK_TOP_3
8
0
10
12.5
20
0
0
TEXT
8
SYM_TERMINAL
10
0
20
-155.448
40
1.778
1
51
0
INSERT
2
STK_TOP_4
8
0
10
15.5
20
0
0
TEXT
8
SYM_TERMINAL
10
0
20
-158.496
40
1.778
1
52
0
INSERT
2
STK_TOP_5
8
0
10
18.4
20
-3.075
0
TEXT
8
SYM_TERMINAL
10
0
20
-161.544
40
1.778
1
53
0
INSERT
2
STK_TOP_4
8
0
10
-15.5
20
0
0
TEXT
8
SYM_TERMINAL
10
0
20
-164.592
40
1.778
1
54
0
INSERT
2
STK_TOP_5
8
0
10
-18.4
20
-3.075
0
TEXT
8
SYM_TERMINAL
10
0
20
-167.64
40
1.778
1
55
0
INSERT
2
STK_TOP_6
8
0
10
-12.5
20
-5.05
0
TEXT
8
SYM_TERMINAL
10
0
20
-170.688
40
1.778
1
56
0
INSERT
2
STK_TOP_6
8
0
10
-7.5
20
-5.05
0
TEXT
8
SYM_TERMINAL
10
0
20
-173.736
40
1.778
1
57
0
INSERT
2
STK_TOP_6
8
0
10
-2.5
20
-5.05
0
TEXT
8
SYM_TERMINAL
10
0
20
-176.784
40
1.778
1
58
0
INSERT
2
STK_TOP_6
8
0
10
2.5
20
-5.05
0
TEXT
8
SYM_TERMINAL
10
0
20
-179.832
40
1.778
1
59
0
INSERT
2
STK_TOP_6
8
0
10
7.5
20
-5.05
0
TEXT
8
SYM_TERMINAL
10
0
20
-182.88
40
1.778
1
60
0
INSERT
2
STK_TOP_6
8
0
10
12.5
20
-5.05
0
TEXT
8
SYM_TERMINAL
10
0
20
-185.928
40
1.778
1
61
0
ENDBLK
0
BLOCK
2
PKG_0
8
0
10
0
20
0
3
PKG_0
70
64
0
TEXT
8
PKG_INFO
10
0
20
0
40
1.778
1
*SYM:= 2
0
TEXT
8
PKG_INFO
10
0
20
-3.048
40
1.778
1
*PKG:= 0 CON-FI-RE51S-HF UND
0
ENDBLK
0
BLOCK
2
SYM_TOP_3
8
0
10
0
20
0
3
SYM_TOP_3
70
64
0
TEXT
8
SYM_NAME
10
0
20
0
40
1.778
1
H51G5
41
0.75
0
INSERT
2
PART_BODY_TOP_2
8
0
10
0
20
0
0
INSERT
2
STK_TOP_12
8
0
10
2.9
20
8.58
0
TEXT
8
SYM_TERMINAL
10
0
20
-3.048
40
1.778
1
1
0
INSERT
2
STK_TOP_12
8
0
10
3.4
20
8.58
0
TEXT
8
SYM_TERMINAL
10
0
20
-6.096
40
1.778
1
2
0
INSERT
2
STK_TOP_12
8
0
10
3.9
20
8.58
0
TEXT
8
SYM_TERMINAL
10
0
20
-9.144
40
1.778
1
3
0
INSERT
2
STK_TOP_12
8
0
10
4.4
20
8.58
0
TEXT
8
SYM_TERMINAL
10
0
20
-12.192
40
1.778
1
4
0
INSERT
2
STK_TOP_12
8
0
10
4.9
20
8.58
0
TEXT
8
SYM_TERMINAL
10
0
20
-15.24
40
1.778
1
5
0
INSERT
2
STK_TOP_12
8
0
10
5.4
20
8.58
0
TEXT
8
SYM_TERMINAL
10
0
20
-18.288
40
1.778
1
6
0
INSERT
2
STK_TOP_12
8
0
10
5.9
20
8.58
0
TEXT
8
SYM_TERMINAL
10
0
20
-21.336
40
1.778
1
7
0
INSERT
2
STK_TOP_12
8
0
10
6.4
20
8.58
0
TEXT
8
SYM_TERMINAL
10
0
20
-24.384
40
1.778
1
8
0
INSERT
2
STK_TOP_12
8
0
10
6.9
20
8.58
0
TEXT
8
SYM_TERMINAL
10
0
20
-27.432
40
1.778
1
9
0
INSERT
2
STK_TOP_12
8
0
10
7.4
20
8.58
0
TEXT
8
SYM_TERMINAL
10
0
20
-30.48
40
1.778
1
10
0
INSERT
2
STK_TOP_12
8
0
10
7.9
20
8.58
0
TEXT
8
SYM_TERMINAL
10
0
20
-33.528
40
1.778
1
11
0
INSERT
2
STK_TOP_12
8
0
10
8.4
20
8.58
0
TEXT
8
SYM_TERMINAL
10
0
20
-36.576
40
1.778
1
12
0
INSERT
2
STK_TOP_12
8
0
10
8.9
20
8.58
0
TEXT
8
SYM_TERMINAL
10
0
20
-39.624
40
1.778
1
13
0
INSERT
2
STK_TOP_12
8
0
10
9.4
20
8.58
0
TEXT
8
SYM_TERMINAL
10
0
20
-42.672
40
1.778
1
14
0
INSERT
2
STK_TOP_12
8
0
10
9.9
20
8.58
0
TEXT
8
SYM_TERMINAL
10
0
20
-45.72
40
1.778
1
15
0
INSERT
2
STK_TOP_12
8
0
10
10.4
20
8.58
0
TEXT
8
SYM_TERMINAL
10
0
20
-48.768
40
1.778
1
16
0
INSERT
2
STK_TOP_12
8
0
10
10.9
20
8.58
0
TEXT
8
SYM_TERMINAL
10
0
20
-51.816
40
1.778
1
17
0
INSERT
2
STK_TOP_12
8
0
10
11.4
20
8.58
0
TEXT
8
SYM_TERMINAL
10
0
20
-54.864
40
1.778
1
18
0
INSERT
2
STK_TOP_12
8
0
10
11.9
20
8.58
0
TEXT
8
SYM_TERMINAL
10
0
20
-57.912
40
1.778
1
19
0
INSERT
2
STK_TOP_12
8
0
10
12.4
20
8.58
0
TEXT
8
SYM_TERMINAL
10
0
20
-60.96
40
1.778
1
20
0
INSERT
2
STK_TOP_12
8
0
10
12.9
20
8.58
0
TEXT
8
SYM_TERMINAL
10
0
20
-64.008
40
1.778
1
21
0
INSERT
2
STK_TOP_12
8
0
10
13.4
20
8.58
0
TEXT
8
SYM_TERMINAL
10
0
20
-67.056
40
1.778
1
22
0
INSERT
2
STK_TOP_12
8
0
10
13.9
20
8.58
0
TEXT
8
SYM_TERMINAL
10
0
20
-70.104
40
1.778
1
23
0
INSERT
2
STK_TOP_12
8
0
10
14.4
20
8.58
0
TEXT
8
SYM_TERMINAL
10
0
20
-73.152
40
1.778
1
24
0
INSERT
2
STK_TOP_12
8
0
10
14.9
20
8.58
0
TEXT
8
SYM_TERMINAL
10
0
20
-76.2
40
1.778
1
25
0
INSERT
2
STK_TOP_12
8
0
10
15.4
20
8.58
0
TEXT
8
SYM_TERMINAL
10
0
20
-79.248
40
1.778
1
26
0
INSERT
2
STK_TOP_12
8
0
10
15.9
20
8.58
0
TEXT
8
SYM_TERMINAL
10
0
20
-82.296
40
1.778
1
27
0
INSERT
2
STK_TOP_12
8
0
10
16.4
20
8.58
0
TEXT
8
SYM_TERMINAL
10
0
20
-85.344
40
1.778
1
28
0
INSERT
2
STK_TOP_12
8
0
10
16.9
20
8.58
0
TEXT
8
SYM_TERMINAL
10
0
20
-88.392
40
1.778
1
29
0
INSERT
2
STK_TOP_12
8
0
10
17.4
20
8.58
0
TEXT
8
SYM_TERMINAL
10
0
20
-91.44
40
1.778
1
30
0
INSERT
2
STK_TOP_12
8
0
10
17.9
20
8.58
0
TEXT
8
SYM_TERMINAL
10
0
20
-94.488
40
1.778
1
31
0
INSERT
2
STK_TOP_12
8
0
10
18.4
20
8.58
0
TEXT
8
SYM_TERMINAL
10
0
20
-97.536
40
1.778
1
32
0
INSERT
2
STK_TOP_12
8
0
10
18.9
20
8.58
0
TEXT
8
SYM_TERMINAL
10
0
20
-100.584
40
1.778
1
33
0
INSERT
2
STK_TOP_12
8
0
10
19.4
20
8.58
0
TEXT
8
SYM_TERMINAL
10
0
20
-103.632
40
1.778
1
34
0
INSERT
2
STK_TOP_12
8
0
10
19.9
20
8.58
0
TEXT
8
SYM_TERMINAL
10
0
20
-106.68
40
1.778
1
35
0
INSERT
2
STK_TOP_12
8
0
10
20.4
20
8.58
0
TEXT
8
SYM_TERMINAL
10
0
20
-109.728
40
1.778
1
36
0
INSERT
2
STK_TOP_12
8
0
10
20.9
20
8.58
0
TEXT
8
SYM_TERMINAL
10
0
20
-112.776
40
1.778
1
37
0
INSERT
2
STK_TOP_12
8
0
10
21.4
20
8.58
0
TEXT
8
SYM_TERMINAL
10
0
20
-115.824
40
1.778
1
38
0
INSERT
2
STK_TOP_12
8
0
10
21.9
20
8.58
0
TEXT
8
SYM_TERMINAL
10
0
20
-118.872
40
1.778
1
39
0
INSERT
2
STK_TOP_12
8
0
10
22.4
20
8.58
0
TEXT
8
SYM_TERMINAL
10
0
20
-121.92
40
1.778
1
40
0
INSERT
2
STK_TOP_12
8
0
10
22.9
20
8.58
0
TEXT
8
SYM_TERMINAL
10
0
20
-124.968
40
1.778
1
41
0
INSERT
2
STK_TOP_12
8
0
10
23.4
20
8.58
0
TEXT
8
SYM_TERMINAL
10
0
20
-128.016
40
1.778
1
42
0
INSERT
2
STK_TOP_12
8
0
10
23.9
20
8.58
0
TEXT
8
SYM_TERMINAL
10
0
20
-131.064
40
1.778
1
43
0
INSERT
2
STK_TOP_12
8
0
10
24.4
20
8.58
0
TEXT
8
SYM_TERMINAL
10
0
20
-134.112
40
1.778
1
44
0
INSERT
2
STK_TOP_12
8
0
10
24.9
20
8.58
0
TEXT
8
SYM_TERMINAL
10
0
20
-137.16
40
1.778
1
45
0
INSERT
2
STK_TOP_12
8
0
10
25.4
20
8.58
0
TEXT
8
SYM_TERMINAL
10
0
20
-140.208
40
1.778
1
46
0
INSERT
2
STK_TOP_12
8
0
10
25.9
20
8.58
0
TEXT
8
SYM_TERMINAL
10
0
20
-143.256
40
1.778
1
47
0
INSERT
2
STK_TOP_12
8
0
10
26.4
20
8.58
0
TEXT
8
SYM_TERMINAL
10
0
20
-146.304
40
1.778
1
48
0
INSERT
2
STK_TOP_12
8
0
10
26.9
20
8.58
0
TEXT
8
SYM_TERMINAL
10
0
20
-149.352
40
1.778
1
49
0
INSERT
2
STK_TOP_12
8
0
10
27.4
20
8.58
0
TEXT
8
SYM_TERMINAL
10
0
20
-152.4
40
1.778
1
50
0
INSERT
2
STK_TOP_12
8
0
10
27.9
20
8.58
0
TEXT
8
SYM_TERMINAL
10
0
20
-155.448
40
1.778
1
51
0
INSERT
2
STK_TOP_23
8
0
10
0.7
20
1.05
0
TEXT
8
SYM_TERMINAL
10
0
20
-158.496
40
1.778
1
52
0
INSERT
2
STK_TOP_9
8
0
10
30.1
20
1.05
0
TEXT
8
SYM_TERMINAL
10
0
20
-161.544
40
1.778
1
53
0
ENDBLK
0
BLOCK
2
PKG_1
8
0
10
0
20
0
3
PKG_1
70
64
0
TEXT
8
PKG_INFO
10
0
20
0
40
1.778
1
*SYM:= 3
0
TEXT
8
PKG_INFO
10
0
20
-3.048
40
1.778
1
*PKG:= 0 H51G5 UND
0
TEXT
8
PKG_INFO
10
0
20
-6.096
40
1.778
1
*GATE:=0
0
TEXT
8
PKG_INFO
10
0
20
-9.144
40
1.778
1
*GATEPIN:= 0 9 1 <>
0
TEXT
8
PKG_INFO
10
0
20
-12.192
40
1.778
1
*GATEPIN:= 0 9 2 <>
0
TEXT
8
PKG_INFO
10
0
20
-15.24
40
1.778
1
*GATEPIN:= 0 9 3 <>
0
TEXT
8
PKG_INFO
10
0
20
-18.288
40
1.778
1
*GATEPIN:= 0 9 4 <>
0
TEXT
8
PKG_INFO
10
0
20
-21.336
40
1.778
1
*GATEPIN:= 0 9 5 <>
0
TEXT
8
PKG_INFO
10
0
20
-24.384
40
1.778
1
*GATEPIN:= 0 9 6 <>
0
TEXT
8
PKG_INFO
10
0
20
-27.432
40
1.778
1
*GATEPIN:= 0 9 7 <>
0
TEXT
8
PKG_INFO
10
0
20
-30.48
40
1.778
1
*GATEPIN:= 0 9 8 <>
0
TEXT
8
PKG_INFO
10
0
20
-33.528
40
1.778
1
*GATEPIN:= 0 9 9 <>
0
TEXT
8
PKG_INFO
10
0
20
-36.576
40
1.778
1
*GATEPIN:= 0 9 10 <>
0
TEXT
8
PKG_INFO
10
0
20
-39.624
40
1.778
1
*GATEPIN:= 0 9 11 <>
0
TEXT
8
PKG_INFO
10
0
20
-42.672
40
1.778
1
*GATEPIN:= 0 9 12 <>
0
TEXT
8
PKG_INFO
10
0
20
-45.72
40
1.778
1
*GATEPIN:= 0 9 13 <>
0
TEXT
8
PKG_INFO
10
0
20
-48.768
40
1.778
1
*GATEPIN:= 0 9 14 <>
0
TEXT
8
PKG_INFO
10
0
20
-51.816
40
1.778
1
*GATEPIN:= 0 9 15 <>
0
TEXT
8
PKG_INFO
10
0
20
-54.864
40
1.778
1
*GATEPIN:= 0 9 16 <>
0
TEXT
8
PKG_INFO
10
0
20
-57.912
40
1.778
1
*GATEPIN:= 0 9 17 <>
0
TEXT
8
PKG_INFO
10
0
20
-60.96
40
1.778
1
*GATEPIN:= 0 9 18 <>
0
TEXT
8
PKG_INFO
10
0
20
-64.008
40
1.778
1
*GATEPIN:= 0 9 19 <>
0
TEXT
8
PKG_INFO
10
0
20
-67.056
40
1.778
1
*GATEPIN:= 0 9 20 <>
0
TEXT
8
PKG_INFO
10
0
20
-70.104
40
1.778
1
*GATEPIN:= 0 9 21 <>
0
TEXT
8
PKG_INFO
10
0
20
-73.152
40
1.778
1
*GATEPIN:= 0 9 22 <>
0
TEXT
8
PKG_INFO
10
0
20
-76.2
40
1.778
1
*GATEPIN:= 0 9 23 <>
0
TEXT
8
PKG_INFO
10
0
20
-79.248
40
1.778
1
*GATEPIN:= 0 9 24 <>
0
TEXT
8
PKG_INFO
10
0
20
-82.296
40
1.778
1
*GATEPIN:= 0 9 25 <>
0
TEXT
8
PKG_INFO
10
0
20
-85.344
40
1.778
1
*GATEPIN:= 0 9 26 <>
0
TEXT
8
PKG_INFO
10
0
20
-88.392
40
1.778
1
*GATEPIN:= 0 9 27 <>
0
TEXT
8
PKG_INFO
10
0
20
-91.44
40
1.778
1
*GATEPIN:= 0 9 28 <>
0
TEXT
8
PKG_INFO
10
0
20
-94.488
40
1.778
1
*GATEPIN:= 0 9 29 <>
0
TEXT
8
PKG_INFO
10
0
20
-97.536
40
1.778
1
*GATEPIN:= 0 9 30 <>
0
TEXT
8
PKG_INFO
10
0
20
-100.584
40
1.778
1
*GATEPIN:= 0 9 31 <>
0
TEXT
8
PKG_INFO
10
0
20
-103.632
40
1.778
1
*GATEPIN:= 0 9 32 <>
0
TEXT
8
PKG_INFO
10
0
20
-106.68
40
1.778
1
*GATEPIN:= 0 9 33 <>
0
TEXT
8
PKG_INFO
10
0
20
-109.728
40
1.778
1
*GATEPIN:= 0 9 34 <>
0
TEXT
8
PKG_INFO
10
0
20
-112.776
40
1.778
1
*GATEPIN:= 0 9 35 <>
0
TEXT
8
PKG_INFO
10
0
20
-115.824
40
1.778
1
*GATEPIN:= 0 9 36 <>
0
TEXT
8
PKG_INFO
10
0
20
-118.872
40
1.778
1
*GATEPIN:= 0 9 37 <>
0
TEXT
8
PKG_INFO
10
0
20
-121.92
40
1.778
1
*GATEPIN:= 0 9 38 <>
0
TEXT
8
PKG_INFO
10
0
20
-124.968
40
1.778
1
*GATEPIN:= 0 9 39 <>
0
TEXT
8
PKG_INFO
10
0
20
-128.016
40
1.778
1
*GATEPIN:= 0 9 40 <>
0
TEXT
8
PKG_INFO
10
0
20
-131.064
40
1.778
1
*GATEPIN:= 0 9 41 <>
0
TEXT
8
PKG_INFO
10
0
20
-134.112
40
1.778
1
*GATEPIN:= 0 9 42 <>
0
TEXT
8
PKG_INFO
10
0
20
-137.16
40
1.778
1
*GATEPIN:= 0 9 43 <>
0
TEXT
8
PKG_INFO
10
0
20
-140.208
40
1.778
1
*GATEPIN:= 0 9 44 <>
0
TEXT
8
PKG_INFO
10
0
20
-143.256
40
1.778
1
*GATEPIN:= 0 9 45 <>
0
TEXT
8
PKG_INFO
10
0
20
-146.304
40
1.778
1
*GATEPIN:= 0 9 46 <>
0
TEXT
8
PKG_INFO
10
0
20
-149.352
40
1.778
1
*GATEPIN:= 0 9 47 <>
0
TEXT
8
PKG_INFO
10
0
20
-152.4
40
1.778
1
*GATEPIN:= 0 9 48 <>
0
TEXT
8
PKG_INFO
10
0
20
-155.448
40
1.778
1
*GATEPIN:= 0 9 49 <>
0
TEXT
8
PKG_INFO
10
0
20
-158.496
40
1.778
1
*GATEPIN:= 0 9 50 <>
0
TEXT
8
PKG_INFO
10
0
20
-161.544
40
1.778
1
*GATEPIN:= 0 9 51 <>
0
TEXT
8
PKG_INFO
10
0
20
-164.592
40
1.778
1
*GATEPIN:= 0 9 52 <>
0
TEXT
8
PKG_INFO
10
0
20
-167.64
40
1.778
1
*GATEPIN:= 0 9 53 <>
0
ENDBLK
0
BLOCK
2
SYM_TOP_4
8
0
10
0
20
0
3
SYM_TOP_4
70
64
0
TEXT
8
SYM_NAME
10
0
20
0
40
1.778
1
H8D3.3
41
0.75
0
TEXT
8
SYM_PART_NAME_01
10
-1.397
20
-0.3302
40
1.0668
1
 
41
0.75
7
W0$2032R0
0
INSERT
2
PART_BODY_TOP_3
8
0
10
0
20
0
0
INSERT
2
STK_TOP_14
8
0
10
1.229614
20
2.968498
0
TEXT
8
SYM_TERMINAL
10
0
20
-3.048
40
1.778
1
1
0
INSERT
2
STK_TOP_14
8
0
10
2.968498
20
1.229614
0
TEXT
8
SYM_TERMINAL
10
0
20
-6.096
40
1.778
1
2
0
INSERT
2
STK_TOP_14
8
0
10
2.968498
20
-1.229614
0
TEXT
8
SYM_TERMINAL
10
0
20
-9.144
40
1.778
1
3
0
INSERT
2
STK_TOP_14
8
0
10
1.229614
20
-2.968498
0
TEXT
8
SYM_TERMINAL
10
0
20
-12.192
40
1.778
1
4
0
INSERT
2
STK_TOP_14
8
0
10
-1.229614
20
-2.968498
0
TEXT
8
SYM_TERMINAL
10
0
20
-15.24
40
1.778
1
5
0
INSERT
2
STK_TOP_14
8
0
10
-2.968498
20
-1.229614
0
TEXT
8
SYM_TERMINAL
10
0
20
-18.288
40
1.778
1
6
0
INSERT
2
STK_TOP_14
8
0
10
-2.968498
20
1.229614
0
TEXT
8
SYM_TERMINAL
10
0
20
-21.336
40
1.778
1
7
0
INSERT
2
STK_TOP_14
8
0
10
-1.229614
20
2.968498
0
TEXT
8
SYM_TERMINAL
10
0
20
-24.384
40
1.778
1
8
0
INSERT
2
STK_TOP_15
8
0
10
0
20
0
0
TEXT
8
SYM_TERMINAL
10
0
20
-27.432
40
1.778
1
9
0
ENDBLK
0
BLOCK
2
PKG_2
8
0
10
0
20
0
3
PKG_2
70
64
0
TEXT
8
PKG_INFO
10
0
20
0
40
1.778
1
*SYM:= 4
0
TEXT
8
PKG_INFO
10
0
20
-3.048
40
1.778
1
*PKG:= 0 H8D3.3 UND
0
ENDBLK
0
BLOCK
2
PART_BODY_TOP_1
8
0
10
0
20
0
3
PART_BODY_TOP_1
70
64
0
POLYLINE
8
PART_TOP_2DLINE_01
66
1
40
0.1524
41
0.1524
70
1
0
VERTEX
8
PART_TOP_2DLINE_01
10
-19.7
20
1
0
VERTEX
8
PART_TOP_2DLINE_01
10
-19.7
20
-4.7
0
VERTEX
8
PART_TOP_2DLINE_01
10
19.7
20
-4.7
0
VERTEX
8
PART_TOP_2DLINE_01
10
19.7
20
1
0
SEQEND
0
INSERT
2
SMOOTH_0$1524
8
PART_TOP_2DLINE_01
10
-19.7
20
1
0
INSERT
2
SMOOTH_0$1524
8
PART_TOP_2DLINE_01
10
-19.7
20
-4.7
0
INSERT
2
SMOOTH_0$1524
8
PART_TOP_2DLINE_01
10
19.7
20
-4.7
0
INSERT
2
SMOOTH_0$1524
8
PART_TOP_2DLINE_01
10
19.7
20
1
0
POLYLINE
8
PART_TOP_COPPER_26
66
1
40
0.254
41
0.254
70
1
0
VERTEX
8
PART_TOP_COPPER_26
10
-17.35
20
-0.8
0
VERTEX
8
PART_TOP_COPPER_26
10
17.35
20
-0.8
0
VERTEX
8
PART_TOP_COPPER_26
10
17.35
20
-4.7
0
VERTEX
8
PART_TOP_COPPER_26
10
-17.35
20
-4.7
0
SEQEND
0
INSERT
2
SMOOTH_0$254
8
PART_TOP_COPPER_26
10
-17.35
20
-0.8
0
INSERT
2
SMOOTH_0$254
8
PART_TOP_COPPER_26
10
17.35
20
-0.8
0
INSERT
2
SMOOTH_0$254
8
PART_TOP_COPPER_26
10
17.35
20
-4.7
0
INSERT
2
SMOOTH_0$254
8
PART_TOP_COPPER_26
10
-17.35
20
-4.7
0
ENDBLK
0
BLOCK
2
STK_TOP_3
8
0
10
0
20
0
3
STK_TOP_3
70
64
0
INSERT
2
DRIL_HOLE_0
8
DRIL_NPLTE_THRU_01
10
0
20
0
0
INSERT
2
DRIL_HOLE_0
8
DRIL_NPLTE_THRU_02
10
0
20
0
0
INSERT
2
PAD_0
8
PADS_INNER
10
0
20
0
0
INSERT
2
PAD_0
8
PADS_BOT
10
0
20
0
0
INSERT
2
PAD_1
8
PADS_TOP
10
0
20
0
50
90
0
ENDBLK
0
BLOCK
2
STK_TOP_4
8
0
10
0
20
0
3
STK_TOP_4
70
64
0
INSERT
2
DRIL_HOLE_0
8
DRIL_NPLTE_THRU_01
10
0
20
0
0
INSERT
2
DRIL_HOLE_0
8
DRIL_NPLTE_THRU_02
10
0
20
0
0
INSERT
2
PAD_0
8
PADS_INNER
10
0
20
0
0
INSERT
2
PAD_0
8
PADS_BOT
10
0
20
0
0
INSERT
2
PAD_2
8
PADS_TOP
10
0
20
0
0
ENDBLK
0
BLOCK
2
STK_TOP_5
8
0
10
0
20
0
3
STK_TOP_5
70
64
0
INSERT
2
DRIL_HOLE_0
8
DRIL_NPLTE_THRU_01
10
0
20
0
0
INSERT
2
DRIL_HOLE_0
8
DRIL_NPLTE_THRU_02
10
0
20
0
0
INSERT
2
PAD_0
8
PADS_INNER
10
0
20
0
0
INSERT
2
PAD_0
8
PADS_BOT
10
0
20
0
0
INSERT
2
PAD_3
8
PADS_TOP
10
0
20
0
50
90
0
ENDBLK
0
BLOCK
2
STK_TOP_6
8
0
10
0
20
0
3
STK_TOP_6
70
64
0
INSERT
2
DRIL_HOLE_0
8
DRIL_NPLTE_THRU_01
10
0
20
0
0
INSERT
2
DRIL_HOLE_0
8
DRIL_NPLTE_THRU_02
10
0
20
0
0
INSERT
2
PAD_0
8
PADS_INNER
10
0
20
0
0
INSERT
2
PAD_0
8
PADS_BOT
10
0
20
0
0
INSERT
2
PAD_4
8
PADS_TOP
10
0
20
0
50
90
0
ENDBLK
0
BLOCK
2
PART_BODY_TOP_2
8
0
10
0
20
0
3
PART_BODY_TOP_2
70
64
0
POLYLINE
8
PART_TOP_2DLINE_01
66
1
40
0.254
41
0.254
70
1
0
VERTEX
8
PART_TOP_2DLINE_01
10
0
20
0
0
VERTEX
8
PART_TOP_2DLINE_01
10
30.8
20
0
0
VERTEX
8
PART_TOP_2DLINE_01
10
30.8
20
8.08
0
VERTEX
8
PART_TOP_2DLINE_01
10
0
20
8.08
0
SEQEND
0
INSERT
2
SMOOTH_0$254
8
PART_TOP_2DLINE_01
10
0
20
0
0
INSERT
2
SMOOTH_0$254
8
PART_TOP_2DLINE_01
10
30.8
20
0
0
INSERT
2
SMOOTH_0$254
8
PART_TOP_2DLINE_01
10
30.8
20
8.08
0
INSERT
2
SMOOTH_0$254
8
PART_TOP_2DLINE_01
10
0
20
8.08
0
ENDBLK
0
BLOCK
2
STK_TOP_12
8
0
10
0
20
0
3
STK_TOP_12
70
64
0
INSERT
2
DRIL_HOLE_0
8
DRIL_PLTE_THRU_01
10
0
20
0
0
INSERT
2
DRIL_HOLE_0
8
DRIL_PLTE_THRU_02
10
0
20
0
0
INSERT
2
PAD_0
8
PADS_INNER
10
0
20
0
0
INSERT
2
PAD_0
8
PADS_BOT
10
0
20
0
0
INSERT
2
PAD_5
8
PADS_TOP
10
0
20
0
50
90
0
ENDBLK
0
BLOCK
2
STK_TOP_23
8
0
10
0
20
0
3
STK_TOP_23
70
64
0
INSERT
2
DRIL_HOLE_0
8
DRIL_PLTE_THRU_01
10
0
20
0
0
INSERT
2
DRIL_HOLE_0
8
DRIL_PLTE_THRU_02
10
0
20
0
0
INSERT
2
PAD_6
8
PADS_INNER
10
0
20
0
0
INSERT
2
PAD_0
8
PADS_BOT
10
0
20
0
0
INSERT
2
PAD_7
8
PADS_TOP
10
0
20
0
50
90
0
ENDBLK
0
BLOCK
2
STK_TOP_9
8
0
10
0
20
0
3
STK_TOP_9
70
64
0
INSERT
2
DRIL_HOLE_0
8
DRIL_PLTE_THRU_01
10
0
20
0
0
INSERT
2
DRIL_HOLE_0
8
DRIL_PLTE_THRU_02
10
0
20
0
0
INSERT
2
PAD_0
8
PADS_INNER
10
0
20
0
0
INSERT
2
PAD_0
8
PADS_BOT
10
0
20
0
0
INSERT
2
PAD_7
8
PADS_TOP
10
0
20
0
50
90
0
ENDBLK
0
BLOCK
2
PART_BODY_TOP_3
8
0
10
0
20
0
3
PART_BODY_TOP_3
70
64
0
POLYLINE
8
PART_TOP_COPPER_01
6
TRMIDX_0
66
1
40
1.524
41
1.524
0
VERTEX
8
PART_TOP_COPPER_01
10
1.2
20
3
42
-5.2051567655
0
VERTEX
8
PART_TOP_COPPER_01
10
-1.2
20
3
0
SEQEND
0
INSERT
2
SMOOTH_1$524
8
PART_TOP_COPPER_01
10
1.2
20
3
0
INSERT
2
SMOOTH_1$524
8
PART_TOP_COPPER_01
10
-1.2
20
3
0
POLYLINE
8
PART_TOP_COPPER_01
6
TRMIDX_0
66
1
40
1.524
41
1.524
0
VERTEX
8
PART_TOP_COPPER_01
10
1.2
20
3
42
0.167791193
0
VERTEX
8
PART_TOP_COPPER_01
10
-1.2
20
3
0
SEQEND
0
INSERT
2
SMOOTH_1$524
8
PART_TOP_COPPER_01
10
1.2
20
3
0
INSERT
2
SMOOTH_1$524
8
PART_TOP_COPPER_01
10
-1.2
20
3
0
POLYLINE
8
PART_TOP_CUTOUT_03
66
1
40
0.127
41
0.127
70
1
0
VERTEX
8
PART_TOP_CUTOUT_03
10
-2.6161673333
20
0
42
1
0
VERTEX
8
PART_TOP_CUTOUT_03
10
2.6161673333
20
0
42
1
0
SEQEND
0
POLYLINE
8
PART_TOP_CUTOUT_04
66
1
40
0.127
41
0.127
70
1
0
VERTEX
8
PART_TOP_CUTOUT_04
10
-2.6161673333
20
0
42
1
0
VERTEX
8
PART_TOP_CUTOUT_04
10
2.6161673333
20
0
42
1
0
SEQEND
0
POLYLINE
8
KEEPOUT_00
6
KEEPOUT_00011110$0
66
1
70
1
0
VERTEX
8
KEEPOUT_00
10
-2.4186766667
20
0
42
1
0
VERTEX
8
KEEPOUT_00
10
2.4186766667
20
0
42
1
0
SEQEND
0
ENDBLK
0
BLOCK
2
STK_TOP_14
8
0
10
0
20
0
3
STK_TOP_14
70
64
0
INSERT
2
DRIL_HOLE_0$7112
8
DRIL_PLTE_THRU_01
10
0
20
0
0
INSERT
2
DRIL_HOLE_0$7112
8
DRIL_PLTE_THRU_02
10
0
20
0
0
INSERT
2
PAD_8
8
PADS_INNER
10
0
20
0
0
INSERT
2
PAD_8
8
PADS_BOT
10
0
20
0
0
INSERT
2
PAD_8
8
PADS_TOP
10
0
20
0
0
ENDBLK
0
BLOCK
2
STK_TOP_15
8
0
10
0
20
0
3
STK_TOP_15
70
64
0
INSERT
2
DRIL_HOLE_3$302
8
DRIL_NPLTE_THRU_01
10
0
20
0
0
INSERT
2
DRIL_HOLE_3$302
8
DRIL_NPLTE_THRU_02
10
0
20
0
0
INSERT
2
PAD_9
8
PADS_INNER
10
0
20
0
0
INSERT
2
PAD_9
8
PADS_BOT
10
0
20
0
0
INSERT
2
PAD_10
8
PADS_XR_21
10
0
20
0
0
INSERT
2
PAD_9
8
PADS_TOP
10
0
20
0
0
ENDBLK
999
*** POWERPCB  PCB PARAMETER ***
0
BLOCK
2
PCB_PARAMS
8
0
10
0
20
0
3
PCB_PARAMS
70
64
999
 *  1.Job name           2.Backupfile name       3.CursorType
999
 *  4.TearDropFlag       5.HighlighNetsFlag      6.HatchDisplayFlag
999
 *  7.PadsFlag           8.TracksFlag            9.ViasFlag
999
 * 10.CopperFlag        11.LinesFlag            12.TextFlag
999
 * 13.TopComponentFlag  14.BottomComponentFlag  16.ObjectSnapFlags
0
TEXT
8
PCB_PARAMS
10
0
20
-3.048
40
1.778
1
A:=51P_FFC--.pcb <> 5 0 0 0 1 1 1 1 1 1 1 1 0 502 0
999
 *  1.RefDesHeight       2.RefDesWidth           3.DefaultWidth
999
 *  4.VGX                5.VGY                   6.OVR
999
 *  7.HatchGrid          8.ObjectSnapRadius
0
TEXT
8
PCB_PARAMS
10
0
20
-6.096
40
1.778
1
B:=2.54 0.254 0.254 0.5 0.5 0.0762 0.254 2.54
999
 *  1.ScaleFactor        2.NetAttributeFlags     3.BackupInterval
999
 *  4.WorkingLevel       5.HatchMode             6.HatchDirection
999
 *  7.ConnectionColor    8.BackgroundColor       9.ForegroundColor
999
 * 10.BoardOutlineColor
0
TEXT
8
PCB_PARAMS
10
0
20
-9.144
40
1.778
1
C:=6.237262249 10002 20 1 0 0 8 0 8 8
999
 * MitreAngle0 - MitreAngle6
0
TEXT
8
PCB_PARAMS
10
0
20
-12.192
40
1.778
1
D:=324000000 324000000 324000000 324000000 324000000 324000000 162000000
999
 * Hatch & Keepout Parameters
0
TEXT
8
PCB_PARAMS
10
0
20
-15.24
40
1.778
1
E:=0.1 0 0 2.54 0 1
999
 * Fanout Parameters
0
TEXT
8
PCB_PARAMS
10
0
20
-18.288
40
1.778
1
F:=0.635 0.635 6.35 1 2 0 1 1 0 0 1 1 1 1
999
 * Pad Entry Parameters
0
TEXT
8
PCB_PARAMS
10
0
20
-21.336
40
1.778
1
P:= 1 1 1 1
999
 * DFF Parameters
0
TEXT
8
PCB_PARAMS
10
0
20
-24.384
40
1.778
1
Q:=89.9999 3967 114300 114300 114300 5 4 114300 114300 114300 114300 1 114300 1 114300 1 114300 0
0
ENDBLK
0
BLOCK
2
DRIL_SYMBOL_0
8
0
10
0
20
0
3
DRIL_SYMBOL_0
70
64
0
ENDBLK
0
BLOCK
2
DRIL_SYMBOL_0$7112
8
0
10
0
20
0
3
DRIL_SYMBOL_0$7112
70
64
0
POLYLINE
8
DRIL_SYMBOL
66
1
40
0.0508
41
0.0508
0
VERTEX
8
DRIL_SYMBOL
10
0
20
-0.254
0
VERTEX
8
DRIL_SYMBOL
10
0
20
0.254
0
SEQEND
0
POLYLINE
8
DRIL_SYMBOL
66
1
40
0.0508
41
0.0508
0
VERTEX
8
DRIL_SYMBOL
10
-0.254
20
0
0
VERTEX
8
DRIL_SYMBOL
10
0.254
20
0
0
SEQEND
0
ENDBLK
0
BLOCK
2
DRIL_SYMBOL_3$302
8
0
10
0
20
0
3
DRIL_SYMBOL_3$302
70
64
0
POLYLINE
8
DRIL_SYMBOL
66
1
40
0.0508
41
0.0508
0
VERTEX
8
DRIL_SYMBOL
10
0
20
-0.254
0
VERTEX
8
DRIL_SYMBOL
10
0
20
0.254
0
SEQEND
0
POLYLINE
8
DRIL_SYMBOL
66
1
40
0.0508
41
0.0508
0
VERTEX
8
DRIL_SYMBOL
10
-0.254
20
0
0
VERTEX
8
DRIL_SYMBOL
10
0.254
20
0
0
SEQEND
0
ENDBLK
999
*** POWERPCB  SMOOTH CIRCLE ***
0
BLOCK
2
SMOOTH_0$254
8
0
10
0
20
0
3
SMOOTH_0$254
70
64
0
POLYLINE
8
0
66
1
40
0.127
41
0.127
70
1
0
VERTEX
8
0
10
-0.0635
20
0
42
1
0
VERTEX
8
0
10
0.0635
20
0
42
1
0
SEQEND
0
ENDBLK
0
BLOCK
2
SMOOTH_0$1524
8
0
10
0
20
0
3
SMOOTH_0$1524
70
64
0
POLYLINE
8
0
66
1
40
0.0762
41
0.0762
70
1
0
VERTEX
8
0
10
-0.0381
20
0
42
1
0
VERTEX
8
0
10
0.0381
20
0
42
1
0
SEQEND
0
ENDBLK
0
BLOCK
2
SMOOTH_1$524
8
0
10
0
20
0
3
SMOOTH_1$524
70
64
0
POLYLINE
8
0
66
1
40
0.762
41
0.762
70
1
0
VERTEX
8
0
10
-0.381
20
0
42
1
0
VERTEX
8
0
10
0.381
20
0
42
1
0
SEQEND
0
ENDBLK
0
BLOCK
2
PAD_0
8
0
10
0
20
0
3
PAD_0
70
64
0
POLYLINE
8
0
70
1
66
1
0
VERTEX
8
0
10
0
20
0
42
1
0
VERTEX
8
0
10
0
20
0
42
1
0
SEQEND
0
ENDBLK
0
BLOCK
2
PAD_1
8
0
10
0
20
0
3
PAD_1
70
64
0
POLYLINE
8
0
66
1
40
0.25
41
0.25
0
VERTEX
8
0
10
-0.775
20
0
0
VERTEX
8
0
10
0.775
20
0
0
SEQEND
0
ENDBLK
0
BLOCK
2
PAD_2
8
0
10
0
20
0
3
PAD_2
70
64
0
POLYLINE
8
0
66
1
40
1.55
41
1.55
0
VERTEX
8
0
10
-1.25
20
0
0
VERTEX
8
0
10
1.25
20
0
0
SEQEND
0
ENDBLK
0
BLOCK
2
PAD_3
8
0
10
0
20
0
3
PAD_3
70
64
0
POLYLINE
8
0
66
1
40
2.05
41
2.05
0
VERTEX
8
0
10
-1.25
20
0
0
VERTEX
8
0
10
1.25
20
0
0
SEQEND
0
ENDBLK
0
BLOCK
2
PAD_4
8
0
10
0
20
0
3
PAD_4
70
64
0
POLYLINE
8
0
66
1
40
1.3
41
1.3
0
VERTEX
8
0
10
-0.775
20
0
0
VERTEX
8
0
10
0.775
20
0
0
SEQEND
0
ENDBLK
0
BLOCK
2
PAD_5
8
0
10
0
20
0
3
PAD_5
70
64
0
POLYLINE
8
0
66
1
40
0.3
41
0.3
0
VERTEX
8
0
10
-0.5
20
0
0
VERTEX
8
0
10
0.5
20
0
0
SEQEND
0
ENDBLK
0
BLOCK
2
PAD_6
8
0
10
0
20
0
3
PAD_6
70
64
0
POLYLINE
8
0
66
1
0
VERTEX
8
0
10
0
20
0
0
VERTEX
8
0
10
0
20
0
0
SEQEND
0
ENDBLK
0
BLOCK
2
PAD_7
8
0
10
0
20
0
3
PAD_7
70
64
0
POLYLINE
8
0
66
1
40
1.4
41
1.4
0
VERTEX
8
0
10
-1.05
20
0
0
VERTEX
8
0
10
1.05
20
0
0
SEQEND
0
ENDBLK
0
BLOCK
2
PAD_8
8
0
10
0
20
0
3
PAD_8
70
64
0
POLYLINE
8
0
70
1
66
1
40
0.508
41
0.508
0
VERTEX
8
0
10
0
20
-0.254
42
1
0
VERTEX
8
0
10
0
20
0.254
42
1
0
SEQEND
0
ENDBLK
0
BLOCK
2
PAD_9
8
0
10
0
20
0
3
PAD_9
70
64
0
POLYLINE
8
0
70
1
66
1
40
1.651
41
1.651
0
VERTEX
8
0
10
0
20
-0.8255
42
1
0
VERTEX
8
0
10
0
20
0.8255
42
1
0
SEQEND
0
ENDBLK
0
BLOCK
2
PAD_10
8
0
10
0
20
0
3
PAD_10
70
64
0
POLYLINE
8
0
70
1
66
1
40
1.5875
41
1.5875
0
VERTEX
8
0
10
0
20
-3.20675
42
1
0
VERTEX
8
0
10
0
20
3.20675
42
1
0
SEQEND
0
ENDBLK
999
*** POWERPCB  DRILL HOLE ***
0
BLOCK
2
DRIL_HOLE_0
8
0
10
0
20
0
3
DRIL_HOLE_0
70
64
0
POLYLINE
8
0
66
1
70
1
0
VERTEX
8
0
10
0
20
0
42
1
0
VERTEX
8
0
10
0
20
0
42
1
0
SEQEND
0
INSERT
2
DRIL_SYMBOL_0
8
0
10
0
20
0
0
ENDBLK
0
BLOCK
2
DRIL_HOLE_0$7112
8
0
10
0
20
0
3
DRIL_HOLE_0$7112
70
64
0
POLYLINE
8
0
66
1
40
0.3556
41
0.3556
70
1
0
VERTEX
8
0
10
-0.1778
20
0
42
1
0
VERTEX
8
0
10
0.1778
20
0
42
1
0
SEQEND
0
INSERT
2
DRIL_SYMBOL_0$7112
8
0
10
0
20
0
0
ENDBLK
0
BLOCK
2
DRIL_HOLE_3$302
8
0
10
0
20
0
3
DRIL_HOLE_3$302
70
64
0
POLYLINE
8
0
66
1
40
1.651
41
1.651
70
1
0
VERTEX
8
0
10
-0.8255
20
0
42
1
0
VERTEX
8
0
10
0.8255
20
0
42
1
0
SEQEND
0
INSERT
2
DRIL_SYMBOL_3$302
8
0
10
0
20
0
0
ENDBLK
0
ENDSEC
0
SECTION
2
ENTITIES
999
*** POWERPCB  DBLAYER ***
0
INSERT
2
DBLAYERS
8
0
10
0
20
0
999
*** POWERPCB  BOARD ***
0
INSERT
2
BOARD_4
8
0
10
0
20
0
999
*** POWERPCB  2DLINE ***
0
INSERT
2
DRAWING_5
8
0
10
0
20
0
0
INSERT
2
D_1dfeghi_6
8
0
10
65
20
30
0
INSERT
2
D_2dfeghi_7
8
0
10
0
20
0
0
INSERT
2
D_2daefgh_8
8
0
10
0
20
0
0
INSERT
2
D_1dfeghi_9
8
0
10
0
20
30
0
INSERT
2
D_1dfeghi_10
8
0
10
60
20
30
0
INSERT
2
D_1dfeghi_11
8
0
10
5
20
30
0
INSERT
2
D_2dfeghi_12
8
0
10
0
20
20
0
INSERT
2
D_1dfeghi_13
8
0
10
0
20
0
0
INSERT
2
D_1dfeghi_14
8
0
10
0
20
0
0
INSERT
2
D_1dfeghi_15
8
0
10
60
20
0
0
INSERT
2
D_2daefgh_16
8
0
10
65
20
0
0
INSERT
2
D_2daefgh_17
8
0
10
65.5
20
20
999
*** POWERPCB  FREE TEXT ***
0
TEXT
8
TEXT_26
10
10
20
17.5
40
1.778
1
51FFC
41
0.75
7
W0$254
999
*** POWERPCB  COMPONENT ***
0
INSERT
2
PART_TOP_0
8
0
10
32.697
20
9.164
0
INSERT
2
PART_TOP_1
8
0
10
48.09
20
28.15
50
180
0
INSERT
2
PART_TOP_2
8
0
10
5
20
10
0
INSERT
2
PART_TOP_3
8
0
10
60
20
10
0
INSERT
2
PART_TOP_4
8
0
10
60
20
25
0
INSERT
2
PART_TOP_5
8
0
10
5
20
25
999
*** POWERPCB  PCB PARAMETER ***
0
INSERT
2
PCB_PARAMS
8
0
10
0
20
0
0
ENDSEC
0
EOF
